Oops, an error
Loading. Please wait.

Долги chords

19 views 3 this week
no commentswrite comment
1 2 3 4 5
3 more votes to show rating
add to favorites
×
Save as Personal and add changes to this tab that will be seen only by you. Learn more ›
×
You can save this tab as Personal to edit and correct it or add notes. All changes will be seen only by you. Learn more »
launch autoscroll
font size
0
reset
transpose
0
reset
simplify chords
display chords
guitar tuner
edit
Autoscroll
slow
fast
+/-
esc
set tempo
stop
Strumming
There is no strumming pattern for this song yet. and get +5 IQ
[Intro]

E A D A E A D A

E A D A E A D A E A D A E A D A
Ааааааа-ааааааа-ааааааа-ааааааа
E A D A E A D A E A D A E A D A
Ооооооо-ооооооо-ооооооооооооооо

e-7--9-7--7-11-9-11--7-9--7--9-7--7-11-9-11--7-9-7--|
B---------------------------------------------------|
G---------------------------------------------------| [x2]
D---------------------------------------------------|
A---------------------------------------------------|
E---------------------------------------------------|

[Verse 1]

E       A         D       A
Дай взаймы, ведь мы не враги
E       A      D      A
Завтра надо отдать долги
E         A        D     A
Гангстеры дышат в спину мне
E    A        D      A
Я очутился на самом дне
E        A      D        A
Вчера продал любимый биг маф
E     A        D         A
Уже неделю нет денег на стаф
E    A           D     A
Вижу только на воде круги
E     A      D       A
Очень надо отдать долги


[Chorus]
 E              A
e----------------------|
B----------------------|
G----------------------|
D----------------------|
A--7--6--4--2--4--1----|
E----------------------|
Но никто не услы-шит

        E          A
e----------------------|
B----------------------|
G----------------------|
D--------------------4-|
A-----7--6--4--2--4----|
E----------------------|
Меня, никто не услы-шит

        E          A
e----------------------|
B----------------------|
G----------------------|
D----------------------|
A---7--6--4--2--4--1---|
E----------------------|
И мне никто не поможет

E          A            E A D A
e---------------------------|
B---------------------------|
G---------------------------|
D---------------------------|    (riff from intro is also here)
A--7--6--4--2--4---1------2-|
E---------------------------|
                                  E A D A   E A D A  E A D A  E A D A
Никто не поможет кроме те-бяяяяя-а-ааааааа а-аааааа а-аааааа а-аааааа


[Verse 2]

E    A     D        A
Я попал, беги - не беги
E      A      D       A
Завтра надо отдать долги
   E       A     D    A
Глазами залип в серебро
E            A       D        A
На пальце у тётки в вагоне метро
E        A      D      A
Стрёмные ужасы каждую ночь
E         A      D        A
Про пистолет, верёвку и скотч
E      A       D      A
Слышу уже за дверью шаги
E      A      D       A
Очень надо отдать долги


[Chorus]
 E              A
e----------------------|
B----------------------|
G----------------------|
D----------------------|
A--7--6--4--2--4--1----|
E----------------------|
Но никто не услы-шит

        E          A
e----------------------|
B----------------------|
G----------------------|
D--------------------4-|
A-----7--6--4--2--4----|
E----------------------|
Меня, никто не услы-шит

        E          A
e----------------------|
B----------------------|
G----------------------|
D----------------------|
A---7--6--4--2--4--1---|
E----------------------|
И мне никто не поможет

E          A            E A D A
e---------------------------|
B---------------------------|
G---------------------------|
D---------------------------|    (riff from intro is also here)
A--7--6--4--2--4---1------2-|
E---------------------------|
                                  E A D A   E A D A  E A D A  E A D A
Никто не поможет кроме те-бяяяяя-а-ааааааа а-аааааа а-аааааа а-аааааа

[Rock part/Outro]
E5       D5 A5 D5 A5 [x8]

            
            
Suggest correction
Creating personal tab
Creating personal tab
You can edit any tab online and save it as your Personal.

You can edit, replace or remove any tab part or add personal notes – all changes will be seen only by you.

Personal tabs can be accessed anytime from any device, even offline.
Learn more »
Give kudos to tab author, rate the tab!
1 2 3 4 5
comments
print report bad tab
guest
You may want to rate the tab now too:
select rating
Wanna post a correction for this tab? Suggest correction