Oops, an error
Loading. Please wait.

Лагерь Для Толстяков chords

19 views 6 this week
no commentswrite comment
1 2 3 4 5
3 more votes to show rating
add to favorites
×
Save as Personal and add changes to this tab that will be seen only by you. Learn more ›
×
You can save this tab as Personal to edit and correct it or add notes. All changes will be seen only by you. Learn more »
launch autoscroll
font size
0
reset
transpose
0
reset
display chords
guitar tuner
edit
Autoscroll
slow
fast
+/-
esc
set tempo
stop
Strumming
There is no strumming pattern for this song yet. and get +5 IQ
[Intro]
e|----------------------11-9-11p9-----|
B|-11--12-11-9-11p9---------------11--|
G|------------------11----------------| (x3)
D|------------------------------------|
A|------------------------------------|
E|------------------------------------|

e|----------------------11-9-11p9----------|
B|-11--12-11-9h11p9---------------11-12-11-|
G|------------------11---------------------| 
D|-----------------------------------------|
A|-----------------------------------------|
E|-----------------------------------------|

[Verse 1]
F#                E
В школе бьют в лицо
Унижаююююют
F#               E
Откуда столько зла
Поражаеееет
F#       A    E
Я ведь не плохой
              F#
Нормальный парееень
               E
Кто-то бьёт рукой,
А кто ногами

[Pre-Chorus]
F#
Но

[Chorus]
E       B    F#
Мама, я не готов
E                  F#
В лагерь для толстяков
E       B     F#
Мама, я не готов
E                  F#
В лагерь для толстяков

[Verse 2]
F#         E
Душная Москва
Я потеюююю
F#          E
Страхи по утрам
Давят чёрной тенью
F#            E
В школу не пойду
Буду спать в подъездеее
F#            E
Из дома прихвачу
Себе сосиску в тесте

[Pre-Chorus]
F#
Но

[Chorus]
E       B    F#
Мама, я не готов
E                  F#
В лагерь для толстяков
E       B     F#
Мама, я не готов
E                  F#
В лагерь для толстяков

[Outro]
e|----------------------11-9-11p9-----|
B|-11--12-11-9-11p9---------------11--|
G|------------------11----------------| (x3)
D|------------------------------------|
A|------------------------------------|
E|------------------------------------|

e|----------------------11-9-11p9----------|
B|-11--12-11-9h11p9---------------11-12-11-|
G|------------------11---------------------| 
D|-----------------------------------------|
A|-----------------------------------------|
E|-----------------------------------------|

************************************

| h  Hammer-on
| p  Pull-off

************************************
Suggest correction
Creating personal tab
Creating personal tab
You can edit any tab online and save it as your Personal.

You can edit, replace or remove any tab part or add personal notes – all changes will be seen only by you.

Personal tabs can be accessed anytime from any device, even offline.
Learn more »
Give kudos to tab author, rate the tab!
1 2 3 4 5
comments
print report bad tab
guest
You may want to rate the tab now too:
select rating
Wanna post a correction for this tab? Suggest correction