Oops, an error
Loading. Please wait.

Archaic Subjugation tab

version 1
version 1

Whole song

Interactive

7 views 1 this week
no commentswrite comment
1 2 3 4 5
3 more votes to show rating
add to favorites
×
Save as Personal and add changes to this tab that will be seen only by you. Learn more ›
×
You can save this tab as Personal to edit and correct it or add notes. All changes will be seen only by you. Learn more »
launch autoscroll
font size
0
reset
how to read this tab
guitar tuner
edit
Autoscroll
slow
fast
+/-
esc
set tempo
stop
"Archaic Subjugation" (1:19) from the album "Constructs Of The State" - Leftöver Crack
Released November 27, 2015


[Intro]
(arrhythmic noodling + heavy feedback)
D#|------------------------------|
A#|------------------------------|
F#|------------------------------|
C#|------------10-8----8-6-8-----|
G#|--------------------------9-8-|
D#|---6---6----------------------|


(0:13) (both guitars)
D#|-----|-----|-----|-0~--|
A#|-----|-----|-----|-0~--|
F#|-----|-----|-----|-0~--|
C#|-9---|-9---|-9---|-9~--|
G#|-7---|-7---|-7---|-7~--|
D#|-----|-----|-----|-0~--|
(let that last chord ring and feed back. bend your guitar neck a bit of you're feeling brave)



[Verse]
(0:36) (both guitars)
D#|---------------|---------------|
A#|---------------|---------------|
F#|---------------|---------------|
C#|-9-9--9-8-8--8-|-7-7--7-6-6--6-|
G#|-7-7--7-6-6--6-|-5-5--5-4-4--4-|
D#|---------------|---------------| (x4)




(0:44) (both guitars)
D#|---------------|---------------|
A#|---------------|---------------|
F#|---------------|---------------|
C#|-9-9-9--8-8-8--|-7-7-7--6-6-6--|
G#|-7-7-7--6-6-6--|-5-5-5--4-4-4--|
D#|---------------|---------------| (x3)
PM  * *    * *      * *    * *


D#|---------------|---------------|
A#|---------------|---------------|
F#|---------------|---------------|
C#|-9-9-9--8-8-8--|-7-7-7--6------|
G#|-7-7-7--6-6-6--|-5-5-5--4------|
D#|---------------|---------------| (x1)
PM  * *    * *      * *    





[Chorus]
(0:53) (both guitars)

watch for the alternating endings:                 1st&3rd times     2nd&4th times
D#|---------------|---------------|---------------|-----------------|--------------------|
A#|---------------|---------------|---------------o-----------------o--------------------|
F#|---------------|---------------|---------------|-----------------|--------------------|
C#|-9-9--9-9-9--9-|-9-9--9-9-9--9-|---------------|-----------------|--------------------|
G#|-7-7--7-7-7--7-|-7-7--7-7-7--7-|-8-8--8-8-8--8-o--8-8--8-8-8--8--o--10-10--10-9-9--9--|
D#|---------------|---------------|-6-6--6-6-6--6-|--6-6--6-6-6--6--|---8--8--8--7-7--7--| (x4)




[Ending]
(1:11) (both guitars)
D#|---------------|---------------|
A#|---------------|---------------|
F#|---------------|---------------|
C#|-9-9--9-8-8--8-|-7-7--7-6-6--6-|
G#|-7-7--7-6-6--6-|-5-5--5-4-4--4-|
D#|---------------|---------------| (x3)


D#|---------------|---------------|
A#|---------------|---------------|
F#|---------------|---------------|
C#|-9-9--9-8-8--8-|-7-7--7-6------|
G#|-7-7--7-6-6--6-|-5-5--5-4------|
D#|---------------|---------------| (x1)





************************************

| ~   Let ring
| PM  Palm mute
|  o  Alt. ending

************************************
Suggest correction
Creating personal tab
Creating personal tab
You can edit any tab online and save it as your Personal.

You can edit, replace or remove any tab part or add personal notes – all changes will be seen only by you.

Personal tabs can be accessed anytime from any device, even offline.
Learn more »
Give kudos to tab author, rate the tab!
1 2 3 4 5
comments
print report bad tab
guest
You may want to rate the tab now too:
select rating
Wanna post a correction for this tab? Suggest correction