Oops, an error
Loading. Please wait.

Neid chords

16 views 3 this week
no commentswrite comment
1 2 3 4 5
3 more votes to show rating
add to favorites
×
Save as Personal and add changes to this tab that will be seen only by you. Learn more ›
×
You can save this tab as Personal to edit and correct it or add notes. All changes will be seen only by you. Learn more »
launch autoscroll
font size
0
reset
transpose
0
reset
display chords
guitar tuner
edit
Autoscroll
slow
fast
+/-
esc
set tempo
stop
Strumming
There is no strumming pattern for this song yet. and get +5 IQ
[Intro]
        A                F                C                 G
e|---------------|----------------|-----------------|----------------|
B|---------------|----------------|-----------------|----------------|
G|---------------|----------------|-----------0-----|----------------|
D|---------------|----------2-----|-----2-------3-2-|----------------| (6x)
A|----3----3---3-|-----3------2-0-|-3-3---3---------|-----2----5-3-2-|
E|-5---5-5---5---|-1-1---1--------|-----------------|-3-3---3--------|

A               F
Ihr hetzt gegen unseren Namen
C               G
Ihr hetzt gegen unseren Stil
A           F
Andre Leute denunzieren
C            G
Das ist euer Lebensziel
A                 F
Ihr armen kleinen Lichter
C                    G
In dieser großen Welt
A                   F
Ihr könnt sonst was erzählen
C                        G
Denn ich weiß was euch so quält - Es ist der NEID

[Bridge]
e|---------------|---------------|
B|---------------|---------------|
G|---------------|-5--5----------|
D|-7--7--------3-|-5--5--5-3-2-5-| (2x)
A|-7--7--3-2-0-3-|-3--3--------5-|
E|-5--5--------1-|-------------3-|

A F C G
A F C G
A F C G

[Verse]
A
Hinter unserem Rücken
F
Wird getuschelt und gehetzt
C
"Wir sind so und wir sagen das!"
G
Das sind die Worte aus eurem Mund
A
Doch wenn wir vor euch stehn
F
Tut ihr so als wärn wir Freunde
C
Dann drehn wir euch den Rücken zu
G
Und ihr kotzt euch wieder aus! Wieder aus!

[Bridge]
e|---------------|---------------|
B|---------------|---------------|
G|---------------|-5--5----------|
D|-7--7--------3-|-5--5--5-3-2-5-| (2x)
A|-7--7--3-2-0-3-|-3--3--------5-|
E|-5--5--------1-|-------------3-|

[Chorus]
A                           F
Ist es der Neid der aus euch spricht?
G                    Em
Seid ihr wirklich so primitiv?
A                    F
Wir kämpfen doch für gleiche Ziele
G                  Em
Dass ihr das nicht versteht
A                     F
Der Neid der aus euch spricht
G                    Em
Seid ihr wirklich so primitiv?
A                    F
Wir kämpfen doch für gleiche Ziele
G                  Em
Dass ihr das nicht versteht

[Bridge]
e|---------------|---------------|
B|---------------|---------------|
G|---------------|-5--5----------|
D|-7--7--------3-|-5--5--5-3-2-5-| (2x)
A|-7--7--3-2-0-3-|-3--3--------5-|
E|-5--5--------1-|-------------3-|

A F C G
A F C G
A F C G

[Verse]
A
Dies Lied ist auch an die Menschen gerichtet
F
die nur Dreck über uns erzählen:
C
Warum müsst ihr mit euren dummen Gerüchten
G
Die Menschheit quälen?
A
Lügen wie im Kindergarten
F
Legt ihr ans Tageslicht
C
Warum ihr euch so verhaltet
G
Das verstehn wir nicht - Verstehn wir nicht

[Bridge]
e|---------------|---------------|
B|---------------|---------------|
G|---------------|-5--5----------|
D|-7--7--------3-|-5--5--5-3-2-5-| (2x)
A|-7--7--3-2-0-3-|-3--3--------5-|
E|-5--5--------1-|-------------3-|

[Chorus]
A                           F
Ist es der Neid der aus euch spricht?
G                    Em
Seid ihr wirklich so primitiv?
A                    F
Wir kämpfen doch für gleiche Ziele
G                  Em
Dass ihr das nicht versteht
A                     F
Der Neid der aus euch spricht
G                    Em
Seid ihr wirklich so primitiv?
A                    F
Wir kämpfen doch für gleiche Ziele
G                  Em
Dass ihr das nicht versteht

[Bridge]
e|---------------|---------------|
B|---------------|---------------|
G|---------------|-5--5----------|
D|-7--7--------3-|-5--5--5-3-2-5-| (2x)
A|-7--7--3-2-0-3-|-3--3--------5-|
E|-5--5--------1-|-------------3-|

A F C G
A F C G
A F C G

e|---------------|---------------|
B|---------------|---------------|
G|---------------|-5--5----------|
D|-7--7--------3-|-5--5--5-3-2-5-| (2x)
A|-7--7--3-2-0-3-|-3--3--------5-|
E|-5--5--------1-|-------------3-|

[Outro]
A                           F
Ist es der Neid der aus euch spricht?
G                    Em
Seid ihr wirklich so primitiv?
A                    F
Wir kämpfen doch für gleiche Ziele
G                  Em
Dass ihr das nicht versteht
A                     F
Der Neid der aus euch spricht
G                    Em
Seid ihr wirklich so primitiv?
A                    F
Wir kämpfen doch für gleiche Ziele
G                  Em
Dass ihr das nicht versteht

e|---------------|---------------|
B|---------------|---------------|
G|---------------|-5--5----------|
D|-7--7--------3-|-5--5--5-3-2-5-| (2x)
A|-7--7--3-2-0-3-|-3--3--------5-|
E|-5--5--------1-|-------------3-|

            
            
Suggest correction
Creating personal tab
Creating personal tab
You can edit any tab online and save it as your Personal.

You can edit, replace or remove any tab part or add personal notes – all changes will be seen only by you.

Personal tabs can be accessed anytime from any device, even offline.
Learn more »
Give kudos to tab author, rate the tab!
1 2 3 4 5
comments
print report bad tab
guest
You may want to rate the tab now too:
select rating
Wanna post a correction for this tab? Suggest correction