Oops, an error
Loading. Please wait.

The Bargain The Waltz Of Treachery chords

version 2
version 2

Whole song

  • Includes the whole song (the very beginning) and a... Show more
31 views 6 this week
no commentswrite comment
1 2 3 4 5
2 more votes to show rating
add to favorites
×
Save as Personal and add changes to this tab that will be seen only by you. Learn more ›
×
You can save this tab as Personal to edit and correct it or add notes. All changes will be seen only by you. Learn more »
launch autoscroll
font size
0
reset
transpose
0
reset
simplify chords
display chords
guitar tuner
edit
Autoscroll
slow
fast
+/-
esc
set tempo
stop
About this tab version
Includes the whole song (the very beginning) and a suggested tab for the waltz section. Was this info helpful? Yes No
Strumming
There is no strumming pattern for this song yet. and get +5 IQ
[Intro]
Cm     Cm     Cm
Cm     Am     C/G
F      Gm

[Valjean]
Gm                  G         Cm
Hush now, Do not be afraid of me.
Gm                           Cm7
Don't cry, show me where you live.
Fm         Cm/G        G7      Cm
Tell me my child, what is your name?

[Cosette]
Fm  G7            Cm
       I'm called Cosette

     Cm              Cm              Cm              D#sus2
     1       +       2       +       3       +       4       +
e|---3---------------3-----------------------------------------------|
B|-----------4---------------4-------4---------------4---------------|
G|-------3-------3-------3-------3-----------5---------------3-------|
D|---------------------------------------5-------5-------3-------3---|
A|-------------------------------------------------------------------|
E|-------------------------------------------------------------------|

     Am              Am              Fm              E
     1       +       2       +       3       +       4       +
e|-------------------------------------------------------------------|
B|---1---------------1-----------------------------------------------|
G|-----------2---------------2-------2---------------1---------------|
D|-------2-------2-------2-------2-----------3---------------2-------|
A|---------------------------------------3-------3-------2-------2---|
E|-------------------------------------------------------------------|


     Am              Am              Fm              E
     1       +       2       +       3       +       4       +
e|-------------------------------------------------------------------|
B|---1---------------1-----------------------------------------------|
G|-----------2---------------2-------2---------------1---------------|
D|-------2-------2-------2-------2-----------3---------------2-------|
A|---------------------------------------3-------3-------2-------2---|
E|-------------------------------------------------------------------|

[Valjean & Cosette]
Am Bdim E7 Am
La la la (etc.)
Am G G7 C
La la la (etc.)
Dm Am E F
La la la (etc.)
Dm E7
La la la (etc.)

[Interlude]
     C#dim7          C#dim7          C#dim7           C#dim7
     1       +       2       +       3       +        4
e|---3-------3-------5-------5-------3-------3--------5--------------|
B|-----------------------2--------2-------------------2--------------|
G|-------4-------4-----------------------4-------4----2--------------|
D|---5---------------2---------------5----------------2--------------|
A|---4---------------2---------------4----------------2--------------|
E|-------------------------------------------------------------------|

[Valjean]
Em          F#m/E            G/E               F#m/E
I found her wand'ring in the wood, this little child,
            G/E              C
I found her trembling in the shadows.
Am       Bm/A            Cm/A
And I am here to help Cosette,
           Bm/A       Cm/A               F
And I will settle any debt you may think proper.
       Em       Dm     Em     F             B
I will pay what I must pay to take Cosette away.

E E/D# C#m         C#m/B           A  A/G#
        There is a duty I must heed.
F#m          B7             E
  There is a promise I have made.
          E/D#            C#m  C#m/B
For I was blind to one in need.
A           A/G#             F#m     B
  I did not see what stood before me.
C#        C#/E#          F#m  F#m/A
  Now her mother is with God.
C#          C#/E#        F#
  Fantine's suffering is over.
B       B/D#                Em    Em/G
  And I speak here with her voice,
B                         E A/E E A/E
  And I stand here in her place.

[Valjean]                                 [Madame Thenardier/Thenardier]
B              B/A#         G#m                   G#m/F#
 And from this day and ever more,          Let me take you coat M'sieur
E              E/D#          C#m                        C#m/F#      F#
 Cosette shall live in my protection       You are very welcome here.
B        B/A#           G#m                       G#m/F#
 I shall not forsake my vow.               Take a glass. Take a chair.
E              F#            E
 Cosette shall have a father now.

[Waltz Tab]
     E
     1       +       2       +       3       +
e|---------------------------------------------------|
B|-------------------9---------------9---------------|
G|-------------------9---------------9---------------|
D|-----------9---------------9---------------9-------|
A|---7-----------------------------------------------|
E|---------------------------------------------------|

     Em
     1       +       2       +       3       +
e|---------------------------------------------------|
B|-------------------8---------------8---------------|
G|-------------------9---------------9---------------|
D|-----------9---------------9---------------9-------|
A|---7-----------------------------------------------|
E|---------------------------------------------------|  x2

     Ebm
     1       +       2       +       3       +
e|---------------------------------------------------|
B|-------------------7---------------7---------------|
G|-------------------8---------------8---------------|
D|-----------8---------------8---------------8-------|
A|---6-----------------------------------------------|
E|---------------------------------------------------|

     Ebsus2
     1       +       2       +       3       +
e|---------------------------------------------------|
B|-------------------6---------------6---------------|
G|-------------------8---------------8---------------|
D|-----------8---------------8---------------8-------|
A|---6-----------------------------------------------|
E|---------------------------------------------------|  x2

*Use a similar pattern for similar chords*

[Thenardier]
E       Em  E       Em
What to do? What to say?
E         Em        E        Em
Shall you carry our treasure away?
Ebm    Ebsus2 Ebm    Ebsus2
What a gem!   What a pearl!
Ebm    Ebsus2    Ebm        Ebsus2
Beyond rubies is our little girl!

C#m     C#sus2  C#m      C#sus2
How can we,     speak of debt?
C#m       C#sus2     C#m     G#
Let's not haggle for darling Cosette.
C#      C#m  C#       C#m
Dear Fantine, gone to rest,
C#      C#m          C#            C#m
Have we done for her child what is best?
F#         F#m    F#          F#m
Shared our bread, shared wach bone.
F#      F#m            F#         F#m           B7
Treated her like she's one of our own, Like our own, M'sieur!

[Valjean]
B7
 Your feelings do you credit, sir,
D
 And I will ease the parting blow.
G#                                       C#m7
 Let us not talk of bargains or bones or greed:
           F#           B
Now, may I say, we are agreed?

[Madame Thenardier]
E          Em    E       Em
That would quite fit the bill
E      Em        E          Em
If she hadn't so often been ill.
Ebm    Ebsus2 Ebm      Ebsus2
Little dear,   cost us dear,
Ebm Ebsus2      Ebm      Ebsus2
Medicines are expensive, M'sieur.
C#m      C#sus2  C#m           C#sus2
Not that we        begrudged a sou,
C#m     C#sus2       C#m             G#
It's no more than we Christians must do!

[The Thenardiers]
C#        C#m  C#         C#m
One thing more, One small doubt,
C#        C#m         C#      C#m
There are treacherous people about.
F#   F#m   F#        F#m
No offence, Please reflect
F#     F#m          F#        B7
Your intentions may not be correct.

[Valjean]
E       Em    E            Em
No more words, Here's your price.
E       Em          E         Em
Fifteen hundred for your sacrifice.
Ebm     Ebsus2 Ebm      Ebsus2
Come, Cosette,  Say goodbye,
Ebm    Ebsus2        Ebm        Ebsus2
Let us seek out some friendlier sky.
C#m      C#sus2  C#m      C#sus2
Thank you both     for Cosette.
C#m      C#sus2       C#m        G#
It won't take you too long to forget.

[Instrumental]
C#       C#m       C#       C#m
C#       C#m       C#       C#m
F#       F#m       F#       F#m
F#       F#m       F#       B7

[Valjean]
E       Em   E        Em
Come Cosette, Come my dear,
E        Em        E         Em
From now on I will always be here.
Ebm     Ebsus2 Ebm       Ebsus2
Where I go      you will be.

[Cosette]
Ebm           Ebsus2       Ebm        Ebsus2
Will there be children and castles to see?

[Valjean]
C#m     C#sus2  C#m        C#sus2
Yes, Cosette.    Yes, it's true.
C#m       C#sus2      C#m         G#
There's a castle just waiting for you.

[Outro]
D     Dm      D      Dm
D     Dm      D      Dm
D     Dm      C#m    C#sus2
C#m   C#sus2  C#m    G#     E

            
            
Suggest correction
Creating personal tab
Creating personal tab
You can edit any tab online and save it as your Personal.

You can edit, replace or remove any tab part or add personal notes – all changes will be seen only by you.

Personal tabs can be accessed anytime from any device, even offline.
Learn more »
Give kudos to tab author, rate the tab!
1 2 3 4 5
comments
print report bad tab
guest
You may want to rate the tab now too:
select rating
Wanna post a correction for this tab? Suggest correction