Oops, an error
Loading. Please wait.

Freedom 1 Live tab

by
19 views 1 this week
no commentswrite comment
1 2 3 4 5
2 more votes to show rating
add to favorites
×
Save as Personal and add changes to this tab that will be seen only by you. Learn more ›
×
You can save this tab as Personal to edit and correct it or add notes. All changes will be seen only by you. Learn more »
launch autoscroll
font size
0
reset
how to read this tab
guitar tuner
edit
Autoscroll
slow
fast
+/-
esc
set tempo
stop
Artist: MØ
Song: Freedom 


[Intro]
e|-------------------|
B|--11--8---6---10---|
G|--12--8---7---10---|
D|--12--8---8---10---|
A|--10--6---8---8----|
E|----------6--------|
    Gm  Eb  Bb  F

Gm  Eb  Bb  F (x2)



[Verse 1]

N.C
What am I gonna do, dearest brother?
My inner peace disturbed by a smother

e|----------3-----------------------5--------------|
B|-----4------4----------------6------6------------|
G|---5---5------5------------7---7-------7---------|
D|-5-----------------------7-----------------------|
A|-------------------------------------------------|
E|-------------------------------------------------|
  I broke ‘em good..     How I need to, ooh-ah..

e|-------------10---------------------13---10------------------------|
B|-------11-------11------------10------------13-10------------------|
G|----12----12-------12------10----10---------------12-10------------|x2
D|-12---------------------12------------------------------12---------|
A|-------------------------------------------------------------------|
E|-------------------------------------------------------------------|

N.C
I wanna walk drunk into the water
And get some secret solace from another

e|----------3-----------------------5--------------|
B|-----4------4----------------6------6------------|
G|---5---5------5------------7---7-------7---------|
D|-5-----------------------7-----------------------|
A|-------------------------------------------------|
E|-------------------------------------------------|
  There come..         They lead you to madness..

e|-------------10---------------------13---10------------------------|
B|-------11-------11------------10------------13-10------------------|
G|----12----12-------12------10----10---------------12-10------------|x2
D|-12---------------------12------------------------------12---------|
A|-------------------------------------------------------------------|
E|-------------------------------------------------------------------|


[Pre-Chorus]

N.C
Wisdom comes to those who seek a land behind the sun
Well on the sea go, end of believer, show me all your fun
(Say what!)

[Chorus]

e|-------------------|
B|--11--8---6---10---|
G|--12--8---7---10---|
D|--12--8---8---10---|
A|--10--6---8---8----|
E|----------6--------|
    Gm  Eb  Bb  F

Gm                           Eb
No one will try to save us this time
Bb                                      F
Come on, my love, let’s set the world on fire
Gm                             Eb
No one will try to save us, I swear
Bb                              F
Freedom is like this, we can go anywhere, anywhere



[Verse 2]

N.C
And you throw yourself into the river
And everything was worse than ever

e|----------3-----------------------5--------------|
B|-----4------4----------------6------6------------|
G|---5---5------5------------7---7-------7---------|
D|-5-----------------------7-----------------------|
A|-------------------------------------------------|
E|-------------------------------------------------|
  There go my..           And lead you to madness..

e|----------3-----------------------5--------------|
B|-----4------4----------------6------6------------|
G|---5---5------5------------7---7-------7---------|
D|-5-----------------------7-----------------------|
A|-------------------------------------------------|
E|-------------------------------------------------|
   And a little..        Ride, you’re inside..

  (Say what!)
e|-------------10---------------------13---10------------------------|
B|-------11-------11------------10------------13-10------------------|
G|----12----12-------12------10----10---------------12-10------------|x2
D|-12---------------------12------------------------------12---------|
A|-------------------------------------------------------------------|
E|-------------------------------------------------------------------|

[Pre-Chorus]

N.C
Wisdom comes to those who seek a land behind the sun
Well on the sea go, end of believer, show me all your fun


[Chorus]

e|-------------------|
B|--11--8---6---10---|
G|--12--8---7---10---|
D|--12--8---8---10---|
A|--10--6---8---8----|
E|----------6--------|
    Gm  Eb  Bb  F

Gm                           Eb
No one will try to save us this time
Bb                                      F
Come on, my love, let’s set the world on fire
Gm                             Eb
No one will try to save us, I swear
Bb                              F
Freedom is like this, we can go anywhere, anywhere

Gm                           Eb
No one will try to save us this time
Bb                                      F
Come on, my love, let’s set the world on fire
Gm                             Eb
No one will try to save us, I swear
Bb                              F
Freedom is like this, we can go anywhere, anywhere

            
            
Suggest correction
Creating personal tab
Creating personal tab
You can edit any tab online and save it as your Personal.

You can edit, replace or remove any tab part or add personal notes – all changes will be seen only by you.

Personal tabs can be accessed anytime from any device, even offline.
Learn more »
Give kudos to tab author, rate the tab!
1 2 3 4 5
comments
print report bad tab
guest
You may want to rate the tab now too:
select rating
Wanna post a correction for this tab? Suggest correction