Oops, an error
Loading. Please wait.

Kaer Morhen Theme The Witcher 3 tab

262 views 66 this week
no commentswrite comment
1 2 3 4 5
3 more votes to show rating
add to favorites
×
Save as Personal and add changes to this tab that will be seen only by you. Learn more ›
×
You can save this tab as Personal to edit and correct it or add notes. All changes will be seen only by you. Learn more »
launch autoscroll
font size
0
reset
how to read this tab
guitar tuner
edit
Autoscroll
slow
fast
+/-
esc
set tempo
stop
E  E  E  E  E  E  E  E     E  E  E  E  E  E  E  E   
e|------------5--3-----0--1--|-----------3-----------0--|
B|---------3--3--5-----------|--3--------5--3--L--L--L--|
G|*-----2-----------2--2-----|--2--2--------2-----------|
D|*--0-----------0-----------|--0-----0--0--0-----0-----|
A|---------------------------|-----------------0--------|
E|---------------------------|--------------------------|


    E  E  E  E  E  E  E  E     E  E  E  E  E  E  E  E     
e|-----------1--0-----------|---------------------------||
B|-----------3--------1--3--|--------3-----------3------||
G|--------------2-----2-----|-----2--L--------2-----2--*||
D|--0-----0--------0--------|--0--------2--0-----------*||
A|-----0--------------------|---------------------------||
E|--------------------------|---------------------------||


    E  E  E  E  E  E  E  E     E  E  E  E  E  E  E  E     E  E  E  E  E  E  Q     
e|-----------3--------------|-----------5--3-----1-----|-------------------------|
B|--------3--3--3--------3--|-----------3--5-----3-----|--------------------1----|
G|-----2--------2-----2-----|--------3-----------------|--------3-----------2----|
D|--0--------0-----0--------|-----3-----------3-----3--|-----3-----------2-------|
A|--------------------------|--1-----------1-----------|--1--------1--0----------|
E|--------------------------|--------------------------|-------------------------|


    Q    E  E  E  E  E  E     E  E  E  S  S E  E  E  E   
e|-------0--1--3--0-----0--|-----------0h-1-------------|
B|-------------------1-----|--3-------------3-----------|
G|--2----2--------2--2-----|-----2-------------2-----2--|
D|--0----------------------|--0-----0-------------0-----|
A|-------------------------|----------------------------|
E|-------------------------|----------------------------|


    E  E  E  E  E  E  E  E     E  E  E  E  E  E  E  E   
e|-----------5--3-----0--1--|-----------3-----------0--|
B|--------3--3--5-----------|--3--------5--3--L--L--L--|
G|-----2-----------2--2-----|--2--2--------2-----------|
D|--0-----------0-----------|--0-----0--0--0-----0-----|
A|--------------------------|-----------------0--------|
E|--------------------------|--------------------------|


    E  E  E  E  E  E  E  E     E  E  E  E  E  E  E  S S  
e|-----------5--3-----8-----|--5--------------------0---|
B|-----------3--5-----5-----|--3-----------3----------1-|
G|--------------------------|--2-----2-----------2--2---|
D|--0-----0--------0-----0--|--0--0-----0-----0---------|
A|-----0--------------0-----|---------------------------|
E|--------------------------|---------------------------|


    E  E  E  E  E  E  E  E     E  E  E  E  E  E  Q       Q    E  E  E  E  E  E   
e|-----------5--3-----1-----|-------------------------|-------0--1--3-----0-----|
B|-----------3--5-----3-----|--------------------1----|-------------1-----------|
G|--------3-----------------|--------3-----------2----|--2----2--------2-----2--|
D|-----3-----------3-----3--|-----3-----------2-------|--0----------------0-----|
A|--1-----------1-----------|--1--------1--0----------|-------------------------|
E|--------------------------|-------------------------|-------------------------|


    E  E  E  S S E  E  S S S S     E  E  E  S S E  E  E  E   
e|-----------0-1-------3-5-6-8-|--10--------8-6-5-----1-----|
B|--3------------3-----3-------|----------------------------|
G|--------2---------2--2-------|------------5---5--0--2-----|
D|-----0-----0---------0-------|---------5------3--------3--|
A|-----------------------------|---6------------------------|
E|-----------------------------|------6---------------------|


    E  E  E  E  E  E  E  E     E  E  E  E  E  E  E  E   
e|--6-----5--3--1--------1--|--3--------0--1-----3-----|
B|-----------1--1--1--3-----|--------3--------3-----3--|
G|--------0-----------2-----|--------------------------|
D|--------------3-----------|-----0--------------------|
A|--6-----------------------|--------------------------|
E|-----6--------------------|--3-----------------------|


    E  E  E  E  E  E  S S S S     E  E  E  S S E  E  E  E   
e|--5--------8--5-----3-5-6-8-|--10--------8-6-5-----1-----|
B|--3-----3--5--3-----3-------|----------------------------|
G|-----2-----------2--2-------|------------5---5--0--2-----|
D|--0-----------------0-------|---------5------3--------3--|
A|----------------------------|---6------------------------|
E|----------------------------|------6---------------------|


    E  E  E  E  E  E  E  E     E  E  E  E  E  E  E  E   
e|--6-----5--3--1--------1--|--3--------5--3-----0-----|
B|-----------1--1--1--3-----|--------3--3--5-----------|
G|--------0-----------2-----|--------2--------2-----2--|
D|--------------3-----------|-----0--------------------|
A|--6-----------------------|--------------------------|
E|-----6--------------------|--3-----------------------|


                               >                        
    E  E  E  E  E  E  E  E     E  E  E  E  E  E  E  E   
e|-----------3--------------|-----------5--3-----8-----|
B|--3--------5--3--L--L--L--|--3-----3--3--5-----5-----|
G|-----2--------2-----------|-----2-----------2-----7--|
D|--0-----0--0--0-----0-----|--0-----------------------|
A|-----------------0-----0--|--------------------------|
E|--------------------------|--------------------------|


                               >                          
    E  E  E  E  E  E  E  E     E  E  E  E  E  S S E   E   
e|--5-----------------------|-----------5--3----5-8--10--|
B|--3-----------3-----------|--3-----3--3--5----3-5------|
G|--------2-----------2-----|-----2-----------2-------7--|
D|-----0-----0-----0-----0--|--0-------------------------|
A|--------------------------|----------------------------|
E|--------------------------|----------------------------|


             >  >  >           >                        
    E  E  E  E  E  E  E  E     E  E  E  E  E  E  E  E   
e|--5-----------------------|-----------5--3-----0-----|
B|--3--------3--5--6--5--1--|--3-----3--------------1--|
G|-----2--------------2-----|-----2-----------2--------|
D|--0-----0-----------------|--0-----------------------|
A|--------------------------|--------------3-----------|
E|--------------------------|--------------------------|


    E  E  E  E  E  E  E  E     E  E  E  E  E  S T  T  E  E   
e|--1-----------------------|-------------------------------|
B|--------3--5--6--5--3--1--|--3-----------3----5h-6p-5--1--|
G|-----2--------------------|-----------------2-------------|
D|--------------------------|--0--2--3--2--0----------------|
A|--1-----------3-----------|-------------------------------|
E|--------------------------|-------------------------------|


                                                  >      
    E  E  E  E  E  E  E  E     S S E  E  E  E  E  E  E   
e|--------------------------|------------5--3-----------|
B|--3-----3-----3-----3-----|--3-1-3-----3--5-----3-----|
G|-----2-----2-----2--------|---------2--------------2--|
D|--0--------------------0--|------------------0--------|
A|--------------------------|--1------------3-----------|
E|--------------------------|---------------------------|


    S  S  E  E  E  E  E  E  E     E  E  E  E  E  E  E  E   
e|--------------3--------------|--------------0-----------|
B|--6p-5h-6--------3-----5-----|--1-----3-----------3-----|
G|-----------0--------2-----2--|-----2-----2-----2-----2--|
D|-----------------0-----------|--0-----------------------|
A|--3--------------------------|--------------------------|
E|-----------------------------|--------------------------|


                                                    >   
    E  E  E  E  E  E  E  E     E  E  E  E  E  E  E  E   
e|--------------0-----------|--------------------------|
B|--------3-----------3-----|--------3-----------1--3--|
G|-----2-----2-----2-----2--|--------------------------|
D|--0-----------------------|-----3-----------2--------|
A|--------------------------|--1--------1--0-----------|
E|--------------------------|--------------------------|


                         >                              
    E  E  E  E  E  E  E  E     E  E  E  E  E  E  E  E   
e|--------------------------|--------------0-----------|
B|--------3-----------1--3--|--------3-----------3-----|
G|--------------------------|-----2-----2-----2-----2--|
D|-----3-----------2--------|--0-----------------------|
A|--1--------1--0-----------|--------------------------|
E|--------------------------|--------------------------|


    E  E  E  E  E  E  E  E     H        E  Q    E     E  Q.     E  Q.      
e|--------------0-----------|-----------5--3----0--|--L--1------3---------|
B|--------3-----------3-----|--3-------------------|---------------3------|
G|-----2-----2-----2-----2--|--2-------------------|----------------------|
D|--0-----------------------|--0-------------------|----------------------|
A|--------------------------|----------------------|----------------------|
E|--------------------------|----------------------|----------------------|


    W                  
e|-------------------||
B|--3----------------||
G|--2----------------||
D|--0----------------||
A|-------------------||
E|-------------------||



************************************

 
| h  Hammer-on
| p  Pull-off
 

************************************

            
            
Suggest correction
Creating personal tab
Creating personal tab
You can edit any tab online and save it as your Personal.

You can edit, replace or remove any tab part or add personal notes – all changes will be seen only by you.

Personal tabs can be accessed anytime from any device, even offline.
Learn more »
Give kudos to tab author, rate the tab!
1 2 3 4 5
comments
print report bad tab
guest
You may want to rate the tab now too:
select rating
Wanna post a correction for this tab? Suggest correction