Oops, an error
Loading. Please wait.

Hiljainen Tyttö tab

by Robin
46 views 3 this week
no commentswrite comment
1 2 3 4 5
3 more votes to show rating
add to favorites
×
Save as Personal and add changes to this tab that will be seen only by you. Learn more ›
×
You can save this tab as Personal to edit and correct it or add notes. All changes will be seen only by you. Learn more »
launch autoscroll
font size
0
reset
how to read this tab
guitar tuner
edit
Autoscroll
slow
fast
+/-
esc
set tempo
stop
About this tab version
Easy to follow, lyrics included. Was this info helpful? Yes No
Original key: C#m

Capo 2nd fret

[Intro]
   1  +  2  +  3  +  4  +   1  +  2  +  3  +  4  +
   Bm
e|----------0-------------|----------0-------------|
B|----------------3-------|----------------3-------|
G|-------4--------------4-|-------4--------------4-|
D|----4-------------------|----4-------------------|
A|-2----------------------|-2----------------------|
E|------------------------|------------------------|


[Verse 1]
   1  +  2  +  3  +  4  +   1  +  2  +  3  +  4  +   1  +  2  +  3  +  4  +   1  +  2  +  3  +  4  +
   C#m                      Asus2                    Em7                      Gsus2
e|----------0-------------|----------0-------------|----------0-------------|------------------------|
B|----------------3-------|----------------0-------|----------------0-------|----------3-------------|
G|-------4--------------4-|-------2--------------2-|-------2--------------2-|-------2--------0-------|
D|----4-------------------|----2-------------------|----4-------------------|----0-----------------4-|  (x2)
A|-2----------------------|-0----------------------|------------------------|------------------------|
E|------------------------|------------------------|-2----------------------|-3----------------------|
     Hän katselee ja kuuntelee niin hiljaa              kun muut keskenään   juttelee
     Hän raapustaa taas salaa runojaan                     päiväkirjaansa    punaiseen

   1  +  2  +  3  +  4  +   1  +  2  +  3  +  4  +
   G                        Asus2    A
e|-3--------3-------------|-0--------0-------------|
B|-0--------0-------------|-0--------2-------------|
G|-0--------0-------------|-2--------2-------------|
D|-0--------0-------------|-2--------2-------------|
A|-2--------2-------------|-0--------0-------------|
E|-3--------3-------------|------------------------|
Mä tuijotan vaan kun hän    kirjoit-taa       Kukaan


[Chorus]
   1  +  2  +  3  +  4  +   1  +  2  +  3  +  4  +   1  +  2  +  3  +  4  +   1  +  2  +  3  +  4  +
   Bm          G            A                        Bm          G            A
e|-2-----2---2-3---3-3----|-0-----0---0-0---0-0----|-2-----2---2-3---3-3----|-0-----0---0-0---0-0----|
B|-3-----3---3-0---0-0----|-2-----2---2-2---2-2----|-3-----3---3-0---0-0----|-2-----2---2-2---2-2----|
G|-4-----4---4-0---0-0----|-2-----2---2-2---2-2----|-4-----4---4-0---0-0----|-2-----2---2-2---2-2----|
D|-4-----4---4-0---0-0----|-2-----2---2-2---2-2----|-4-----4---4-0---0-0----|-2-----2---2-2---2-2----|  (x3)
A|-2-----2---2-2---2-2----|-0-----0---0-0---0-0----|-2-----2---2-2---2-2----|-0-----0---0-0---0-0----|
E|-------------3---3-3----|------------------------|-------------3---3-3----|------------------------|
   muu    ei   nää,    ei   huomaa,       ei kukaan  tuu    häntä mukaan hakemaan                Kukaan
   muu,   ei   nää,    ei   huomaa,            siksi paperille jakaa   tunteitaan
      Hiljainen, hiljainen          tyttö yksinäinen,   hiljainen tyttö  lumoaa


[Verse 2]
   1  +  2  +  3  +  4  +   1  +  2  +  3  +  4  +   1  +  2  +  3  +  4  +   1  +  2  +  3  +  4  +
   Bm                       A                        Fm                       G
e|-2-----2---2-2---2-2----|-0-----0---0-0---0-0----|-2-----2---2-2---2-2----|-3-----3---3-3---3-3----|
B|-3-----3---3-3---3-3----|-2-----2---2-2---2-2----|-2-----2---2-2---2-2----|-0-----0---0-0---0-0----|
G|-4-----4---4-4---4-4----|-2-----2---2-2---2-2----|-2-----2---2-2---2-2----|-0-----0---0-0---0-0----|
D|-4-----4---4-4---4-4----|-2-----2---2-2---2-2----|-4-----4---4-4---4-4----|-0-----0---0-0---0-0----|  (x2)
A|-2-----2---2-2---2-2----|-0-----0---0-0---0-0----|-4-----4---4-4---4-4----|-2-----2---2-2---2-2----|
E|------------------------|------------------------|-2-----2---2-2---2-2----|-3-----3---3-3---3-3----|
       Me kuljetaan samaa   matkaa kouluun              mut oon liian ujo     juttelemaan
      En sanaa suusta saisi kuitenkaan                  en ees tiedä miten    aloittaa           Siks

   1  +  2  +  3  +  4  +   1  +  2  +  3  +  4  +   1  +  2  +  3  +  4  +
   G                        Asus2     A
e|-3-----3---3-3---3-3----|-0-----0---0---0-0------|-------------------------|
B|-0-----0---0-0---0-0----|-0-----0---2---2-2------|-------------------------|
G|-0-----0---0-0---0-0----|-2-----2---2---2-2------|-------------------------|
D|-0-----0---0-0---0-0----|-2-----2---2---2-2------|-------------------------|
A|-2-----2---2-2---2-2----|-0-----0---0---0-0------|-------------------------|
E|-3-----3---3-3---3-3----|------------------------|-------------------------|
   tuijotan vaan kun hän    kirjoit-taa                                 Kukaan


[Chorus]
   1  +  2  +  3  +  4  +   1  +  2  +  3  +  4  +   1  +  2  +  3  +  4  +   1  +  2  +  3  +  4  +
   Bm          G            A                        Bm          G            A
e|-2-----2---2-3---3-3----|-0-----0---0-0---0-0----|-2-----2---2-3---3-3----|-0-----0---0-0---0-0----|
B|-3-----3---3-0---0-0----|-2-----2---2-2---2-2----|-3-----3---3-0---0-0----|-2-----2---2-2---2-2----|
G|-4-----4---4-0---0-0----|-2-----2---2-2---2-2----|-4-----4---4-0---0-0----|-2-----2---2-2---2-2----|
D|-4-----4---4-0---0-0----|-2-----2---2-2---2-2----|-4-----4---4-0---0-0----|-2-----2---2-2---2-2----|  (x3)
A|-2-----2---2-2---2-2----|-0-----0---0-0---0-0----|-2-----2---2-2---2-2----|-0-----0---0-0---0-0----|
E|-------------3---3-3----|------------------------|-------------3---3-3----|------------------------|
   muu    ei   nää,    ei   huomaa,       ei kukaan  tuu    häntä mukaan hakemaan                Kukaan
   muu,   ei   nää,    ei   huomaa,            siksi paperille jakaa   tunteitaan
      Hiljainen, hiljainen          tyttö yksinäinen,   hiljainen tyttö  lumoaa


[Bridge]
   1  +  2  +  3  +  4  +   1  +  2  +  3  +  4  +   1  +  2  +  3  +  4  +   1  +  2  +  3  +  4  +
   Bm          G            A           Fm           Bm          G            A           Fm
e|-2-----2---2-3---3-3----|-0-----0---0-2---2-2----|-2-----2---2-3---3-3----|-0-----0---0-2---2-2----|
B|-3-----3---3-0---0-0----|-2-----2---2-2---2-2----|-3-----3---3-0---0-0----|-2-----2---2-2---2-2----|
G|-4-----4---4-0---0-0----|-2-----2---2-2---2-2----|-4-----4---4-0---0-0----|-2-----2---2-2---2-2----|
D|-4-----4---4-0---0-0----|-2-----2---2-4---4-4----|-4-----4---4-0---0-0----|-2-----2---2-4---4-4----|
A|-2-----2---2-2---2-2----|-0-----0---0-4---4-4----|-2-----2---2-2---2-2----|-0-----0---0-4---4-4----|
E|-------------3---3-3----|-------------2---2-2----|-------------3---3-3----|-------------2---2-2----|
         Aa...                        ollaan samanlaisia, aa...                          aivan liian

   1  +  2  +  3  +  4  +   1  +  2  +  3  +  4  +   1  +  2  +  3  +  4  +
   G                        A                                           N.C.
e|-3----------------------|-0----------------------|-------------------------|
B|-0----------------------|-2----------------------|-------------------------|
G|-0----------------------|-2----------------------|-------------------------|
D|-0----------------------|-2----------------------|-------------------------|
A|-2----------------------|-0----------------------|-------------------------|
E|-3----------------------|------------------------|-------------------------|
ujoja          toisillemme  puhumaan                                    Kukaan


[Chorus]
   1  +  2  +  3  +  4  +   1  +  2  +  3  +  4  +   1  +  2  +  3  +  4  +   1  +  2  +  3  +  4  +
   Cm          Ab           Bb                       Cm          Ab           Bb
e|-3-----3---3-4---4-4----|-1-----1---1-1---1-1----|-3-----3---3-4---4-4----|-1-----1---1-1---1-1----|
B|-4-----4---4-4---4-4----|-3-----3---3-3---3-3----|-4-----4---4-4---4-4----|-3-----3---3-3---3-3----|
G|-5-----5---5-4---4-4----|-3-----3---3-3---3-3----|-5-----5---5-4---4-4----|-3-----3---3-3---3-3----|
D|-5-----5---5-6---6-6----|-3-----3---3-3---3-3----|-5-----5---5-6---6-6----|-3-----3---3-3---3-3----|  (x4)
A|-3-----3---3-6---6-6----|-1-----1---1-1---1-1----|-3-----3---3-6---6-6----|-1-----1---1-1---1-1----|
E|-------------4---4-4----|------------------------|-------------4---4-4----|------------------------|
   muu      ei nää,    ei   huomaa      ei kukaan    tuu   häntä mukaan hakemaan                Kukaan
   muu      ei nää,    ei   huomaa             siksi paperille jakaa  tunteitaan
      Hiljainen, hiljainen           tyttö yksinäinen    hiljainen tyttö lumoaa
      Hiljainen, hiljainen           tyttö yksinäinen    hiljainen tyttö lumoaa


[Outro]
   1  +  2  +  3  +  4  +   1  +  2  +  3  +  4  +   1  +  2  +  3  +  4  +   1  +  2  +  3  +  4  +
   Cm          Ab           Bb                       Cm          Ab           Bb
e|-3-----3---3-4---4-4----|-1-----1---1-1---1-1----|-3-----3---3-4---4-4----|-1-----1---1-1---1-1----|
B|-4-----4---4-4---4-4----|-3-----3---3-3---3-3----|-4-----4---4-4---4-4----|-3-----3---3-3---3-3----|
G|-5-----5---5-4---4-4----|-3-----3---3-3---3-3----|-5-----5---5-4---4-4----|-3-----3---3-3---3-3----|
D|-5-----5---5-6---6-6----|-3-----3---3-3---3-3----|-5-----5---5-6---6-6----|-3-----3---3-3---3-3----|  (x2)
A|-3-----3---3-6---6-6----|-1-----1---1-1---1-1----|-3-----3---3-6---6-6----|-1-----1---1-1---1-1----|
E|-------------4---4-4----|------------------------|-------------4---4-4----|------------------------|
         Aa...                                             Aa...
         Aa...                                             Aa...

   1  2  3  4
   Cm
e|-3----------|
B|-4----------|
G|-5----------|
D|-5----------|
A|-3----------|
E|------------|

            
            
Suggest correction
Creating personal tab
Creating personal tab
You can edit any tab online and save it as your Personal.

You can edit, replace or remove any tab part or add personal notes – all changes will be seen only by you.

Personal tabs can be accessed anytime from any device, even offline.
Learn more »
Give kudos to tab author, rate the tab!
1 2 3 4 5
comments
print report bad tab
guest
You may want to rate the tab now too:
select rating
Wanna post a correction for this tab? Suggest correction