Oops, an error
Loading. Please wait.

Yö Kuuluu Meille tab

85 views 18 this week
no commentswrite comment
1 2 3 4 5
3 more votes to show rating
add to favorites
×
Save as Personal and add changes to this tab that will be seen only by you. Learn more ›
×
You can save this tab as Personal to edit and correct it or add notes. All changes will be seen only by you. Learn more »
launch autoscroll
font size
0
reset
how to read this tab
guitar tuner
edit
Autoscroll
slow
fast
+/-
esc
set tempo
stop
About this tab version
Whole song tabbed, lyrics included. Tempo 100 (bpm). Was this info helpful? Yes No
[Intro]
   1  +  2   1  +  2  +  3  +  4  +   1  +  2  +  3  +  4  +
   N.C.      Am G     F               C        G
e|---------|------------------------|------------------------|
B|---------|------------------------|------------------------|
G|---------|------------------------|------------------------|
D|---------|------------------------|------------------------|
A|---------|------------------------|------------------------|
E|---------|------------------------|------------------------|

   1     +     2    +    3    +    4    +   1     +     2    +    3    +    4    +
   N.C.                  D5             C5  N.C.                  D5        C5
e|----------------------------------------|----------------------------------------|
B|----------------------------------------|----------------------------------------|
G|----------------------------------------|----------------------------------------|
D|-----0-2---------------7----7----7----5-|-----0-2---------------7---------5------|
A|-0-3-----------0--0----5----5----5----3-|-0-3-----------0--0----5---------3------|
E|----------------------------------------|----------------------------------------|
PM . . .                                    . . .

   1     +     2    +    3    +    4    +   1     +     2    +    3    +    4    +
   N.C.                  D5             C5  N.C.                  F5        G5
e|----------------------------------------|----------------------------------------|
B|----------------------------------------|----------------------------------------|
G|----------------------------------------|----------------------------------------|
D|-----0-2---------------7----7----7----5-|-----0-2--------------------------------|
A|-0-3-----------0--0----5----5----5----3-|-0-3-----------0--0----3---------5------|
E|----------------------------------------|-----------------------1---------3------|
PM . . .                                    . . .


[Verse 1]
   1     +     2    +    3    +    4    +   1     +     2    +    3    +    4    +
   N.C.                  D5             C5  N.C.                  Dm        C
e|----------------------------------------|----------------------------------------|
B|----------------------------------------|----------------------------------------|
G|----------------------------------------|----------------------------------------|
D|-----0-2---------------7----7----7----5-|-----0-2---------------7---------5------|
A|-0-3-----------0--0----5----5----5----3-|-0-3-----------0--0----5---------3------|
E|----------------------------------------|----------------------------------------|
PM . . .                                    . . .

   1     +     2    +    3    +    4    +   1     +     2    +    3    +    4    +
   N.C.                  D5             C5  N.C.                  F         G
e|----------------------------------------|----------------------------------------|
B|----------------------------------------|----------------------------------------|
G|----------------------------------------|----------------------------------------|
D|-----0-2---------------7----7----7----5-|-----0-2--------------------------------|
A|-0-3-----------0--0----5----5----5----3-|-0-3-----------0--0----3---------5------|
E|----------------------------------------|-----------------------1---------3------|
PM . . .                                    . . .

   1     +     2    +    3    +    4    +   1     +     2    +    3    +    4    +
   N.C.                  D5             C5  N.C.                  Dm        C
e|----------------------------------------|----------------------------------------|
B|----------------------------------------|----------------------------------------|
G|----------------------------------------|----------------------------------------|
D|-----0-2---------------7----7----7----5-|-----0-2---------------7---------5------|
A|-0-3-----------0--0----5----5----5----3-|-0-3-----------0--0----5---------3------|
E|----------------------------------------|----------------------------------------|
PM . . .                                    . . .

   1     +     2    +    3    +    4    +   1     +     2    +    3    +    4    +   1     +     2    +
   N.C.                  D5             C5  F                               G        N.C.
e|----------------------------------------|----------------------------------------|--------------------|
B|----------------------------------------|----------------------------------------|--------------------|
G|----------------------------------------|----------------------------------------|--------------------|
D|-----0-2---------------7----7----7----5-|----------------------------------------|--------------------|
A|-0-3-----------0--0----5----5----5----3-|-3-----------3---------3---------5------|--------------------|
E|----------------------------------------|-1-----------1---------1---------3------|--------------------|
PM . . .


[Verse 2]
   1     +     2    +    3    +    4    +   1     +     2    +    3    +    4    +
   N.C.                  D5             C5  N.C.                  Dm        C
e|----------------------------------------|----------------------------------------|
B|----------------------------------------|----------------------------------------|
G|----------------------------------------|----------------------------------------|
D|-----0-2---------------7----7----7----5-|-----0-2---------------7---------5------|
A|-0-3-----------0--0----5----5----5----3-|-0-3-----------0--0----5---------3------|
E|----------------------------------------|----------------------------------------|
PM . . .                                    . . .

   1     +     2    +    3    +    4    +   1     +     2    +    3    +    4    +
   N.C.                  D5             C5  N.C.                  F         G
e|----------------------------------------|----------------------------------------|
B|----------------------------------------|----------------------------------------|
G|----------------------------------------|----------------------------------------|
D|-----0-2---------------7----7----7----5-|-----0-2--------------------------------|
A|-0-3-----------0--0----5----5----5----3-|-0-3-----------0--0----3---------5------|
E|----------------------------------------|-----------------------1---------3------|
PM . . .                                    . . .

   1     +     2    +    3    +    4    +   1     +     2    +    3    +    4    +
   N.C.                  D5             C5  N.C.                  Dm        C
e|----------------------------------------|----------------------------------------|
B|----------------------------------------|----------------------------------------|
G|----------------------------------------|----------------------------------------|
D|-----0-2---------------7----7----7----5-|-----0-2---------------7---------5------|
A|-0-3-----------0--0----5----5----5----3-|-0-3-----------0--0----5---------3------|
E|----------------------------------------|----------------------------------------|
PM . . .                                    . . .

   1     +     2    +    3    +    4    +   1     +     2    +    3    +    4    +   1     +     2    +
   N.C.                  D5             C5  F                               G        N.C.
e|----------------------------------------|----------------------------------------|--------------------|
B|----------------------------------------|----------------------------------------|--------------------|
G|----------------------------------------|----------------------------------------|--------------------|
D|-----0-2---------------7----7----7----5-|----------------------------------------|--------------------|
A|-0-3-----------0--0----5----5----5----3-|-3-----------3---------3---------5------|--------------------|
E|----------------------------------------|-1-----------1---------1---------3------|--------------------|
PM . . .


[Chorus]
   1     +     2    +    3    +    4    +   1     +     2    +    3    +    4    +
   Am    G          F                       C                G
e|----------------------------------------|----------------------------------------|
B|----------------------------------------|----------------------------------------|
G|----------------------------------------|----------------------------------------|
D|----------------------------------------|-5--------------------------------------|  (x3)
A|-7-----5----------3---------------------|-3----------------5---------------------|
E|-5-----3----------1---------------------|------------------3---------------------|

   1     +     2    +    3    +    4    +   1     +     2    +    3    +    4    +
   Am    G          F                       F     Em         Dm
e|----------------------------------------|----------------------------------------|
B|----------------------------------------|----------------------------------------|
G|----------------------------------------|----------------------------------------|
D|----------------------------------------|------------------7----7----7----7----5-|
A|-7-----5----------3---------------------|-3-----1----------5----5----5----5----3-|
E|-5-----3----------1---------------------|-1-----0--------------------------------|

   1     +     2    +    3    +    4    +
   N.C.                  D5             C5
e|----------------------------------------|
B|----------------------------------------|
G|----------------------------------------|
D|-----0-2---------------7----7----7----5-|
A|-0-3-----------0--0----5----5----5----3-|
E|----------------------------------------|
PM . . .


[Rap Verse 1]
   1     +     2    +    3    +    4    +   1     +     2    +    3    +    4    +
   N.C.                  D5             C5  N.C.                  Dm        C
e|----------------------------------------|----------------------------------------|
B|----------------------------------------|----------------------------------------|
G|----------------------------------------|----------------------------------------|
D|-----0-2---------------7----7----7----5-|-----0-2---------------7---------5------|
A|-0-3-----------0--0----5----5----5----3-|-0-3-----------0--0----5---------3------|
E|----------------------------------------|----------------------------------------|
PM . . .                                    . . .

   1     +     2    +    3    +    4    +   1     +     2    +    3    +    4    +
   N.C.                  D5             C5  N.C.                  F         G
e|----------------------------------------|----------------------------------------|
B|----------------------------------------|----------------------------------------|
G|----------------------------------------|----------------------------------------|
D|-----0-2---------------7----7----7----5-|-----0-2--------------------------------|
A|-0-3-----------0--0----5----5----5----3-|-0-3-----------0--0----3---------5------|
E|----------------------------------------|-----------------------1---------3------|
PM . . .                                    . . .

   1     +     2    +    3    +    4    +   1     +     2    +    3    +    4    +
   N.C.                  D5             C5  N.C.                  Dm        C
e|----------------------------------------|----------------------------------------|
B|----------------------------------------|----------------------------------------|
G|----------------------------------------|----------------------------------------|
D|-----0-2---------------7----7----7----5-|-----0-2---------------7---------5------|
A|-0-3-----------0--0----5----5----5----3-|-0-3-----------0--0----5---------3------|
E|----------------------------------------|----------------------------------------|
PM . . .                                    . . .

   1     +     2    +    3    +    4    +   1     +     2    +    3    +    4    +
   N.C.                  D5             C5  F                               G
e|----------------------------------------|----------------------------------------|
B|----------------------------------------|----------------------------------------|
G|----------------------------------------|----------------------------------------|
D|-----0-2---------------7----7----7----5-|----------------------------------------|
A|-0-3-----------0--0----5----5----5----3-|-3-----------3---------3---------5------|
E|----------------------------------------|-1-----------1---------1---------3------|


[Bridge]
   1  2  3  4   1  2  3  4   1  2  3  4   1     +     2    +    3    +    4    +   1  2  3  4
   N.C.                                                         F         G        N.C.
e|------------|------------|------------|----------------------------------------|------------|
B|------------|------------|------------|----------------------------------------|------------|
G|------------|------------|------------|----------------------------------------|------------|
D|------------|------------|------------|----------------------------------------|------------|
A|------------|------------|------------|-----------------------3---------5------|------------|
E|------------|------------|------------|-----------------------1---------3------|------------|

   1     +     2    +    3    +    4    +   1  2  3  4   1     +     2    +    3    +    4    +   1  +  2  +
                         Dm        C        N.C.         F                               G        N.C.
e|----------------------------------------|------------|----------------------------------------|------------|
B|----------------------------------------|------------|----------------------------------------|------------|
G|----------------------------------------|------------|----------------------------------------|------------|
D|-----------------------7---------5------|------------|----------------------------------------|------------|
A|-----------------------5---------3------|------------|-3-----------3----------3---------5-----|------------|
E|----------------------------------------|------------|-1-----------1----------1---------3-----|------------|


[Chorus]
   1     +     2    +    3    +    4    +   1     +     2    +    3    +    4    +
   Am    G          F                       C                G
e|----------------------------------------|----------------------------------------|
B|----------------------------------------|----------------------------------------|
G|----------------------------------------|----------------------------------------|
D|----------------------------------------|-5--------------------------------------|  (x3)
A|-7-----5----------3---------------------|-3----------------5---------------------|
E|-5-----3----------1---------------------|------------------3---------------------|

   1     +     2    +    3    +    4    +   1     +     2    +    3    +    4    +
   Am    G          F                       F     Em         Dm
e|----------------------------------------|----------------------------------------|
B|----------------------------------------|----------------------------------------|
G|----------------------------------------|----------------------------------------|
D|----------------------------------------|------------------7----7----7----7----5-|
A|-7-----5----------3---------------------|-3-----1----------5----5----5----5----3-|
E|-5-----3----------1---------------------|-1-----0--------------------------------|

   1     +     2    +    3    +    4    +
   N.C.                  D5             C5
e|----------------------------------------|
B|----------------------------------------|
G|----------------------------------------|
D|-----0-2---------------7----7----7----5-|
A|-0-3-----------0--0----5----5----5----3-|
E|----------------------------------------|


[Rap Verse 2]
   1     +     2    +    3    +    4    +   1     +     2    +    3    +    4    +
   N.C.                  D5             C5  N.C.                  Dm        C
e|----------------------------------------|----------------------------------------|
B|----------------------------------------|----------------------------------------|
G|----------------------------------------|----------------------------------------|
D|-----0-2---------------7----7----7----5-|-----0-2---------------7---------5------|
A|-0-3-----------0--0----5----5----5----3-|-0-3-----------0--0----5---------3------|
E|----------------------------------------|----------------------------------------|
PM . . .                                    . . .

   1     +     2    +    3    +    4    +   1     +     2    +    3    +    4    +
   N.C.                  D5             C5  N.C.                  F         G
e|----------------------------------------|----------------------------------------|
B|----------------------------------------|----------------------------------------|
G|----------------------------------------|----------------------------------------|
D|-----0-2---------------7----7----7----5-|-----0-2--------------------------------|
A|-0-3-----------0--0----5----5----5----3-|-0-3-----------0--0----3---------5------|
E|----------------------------------------|-----------------------1---------3------|
PM . . .                                    . . .

   1     +     2    +    3    +    4    +   1     +     2    +    3    +    4    +
   N.C.                  D5             C5  N.C.                  Dm        C
e|----------------------------------------|----------------------------------------|
B|----------------------------------------|----------------------------------------|
G|----------------------------------------|----------------------------------------|
D|-----0-2---------------7----7----7----5-|-----0-2---------------7---------5------|
A|-0-3-----------0--0----5----5----5----3-|-0-3-----------0--0----5---------3------|
E|----------------------------------------|----------------------------------------|
PM . . .                                    . . .

   1     +     2    +    3    +    4    +   1     +     2    +    3    +    4    +
   N.C.                  D5             C5  F                               G        N.C.
e|----------------------------------------|----------------------------------------|--------------------|
B|----------------------------------------|----------------------------------------|--------------------|
G|----------------------------------------|----------------------------------------|- rest for 7 bars --|
D|-----0-2---------------7----7----7----5-|----------------------------------------|- rest for 7 bars --|
A|-0-3-----------0--0----5----5----5----3-|-3-----------3---------3---------5------|--------------------|
E|----------------------------------------|-1-----------1---------1---------3------|--------------------|

   1     +     2    +    3    +    4    +   1  +  2  +
   F                               G        N.C.
e|----------------------------------------|------------|
B|----------------------------------------|------------|
G|----------------------------------------|------------|
D|----------------------------------------|------------|
A|-3-----------3----------3---------5-----|------------|
E|-1-----------1----------1---------3-----|------------|


[Chorus]
   1     +     2    +    3    +    4    +   1     +     2    +    3    +    4    +
   Am    G          F                       C                G
e|----------------------------------------|----------------------------------------|
B|----------------------------------------|----------------------------------------|
G|----------------------------------------|----------------------------------------|
D|----------------------------------------|-5--------------------------------------|  (x3)
A|-7-----5----------3---------------------|-3----------------5---------------------|
E|-5-----3----------1---------------------|------------------3---------------------|

   1     +     2    +    3    +    4    +   1     +     2    +    3    +    4    +
   Am    G          F                       F     Em         Dm
e|----------------------------------------|----------------------------------------|
B|----------------------------------------|----------------------------------------|
G|----------------------------------------|----------------------------------------|
D|----------------------------------------|------------------7----7----7----7----5-|
A|-7-----5----------3---------------------|-3-----1----------5----5----5----5----3-|
E|-5-----3----------1---------------------|-1-----0--------------------------------|


[Outro]
   1     +     2    +    3    +    4    +   1     +     2    +    3    +    4    +
   Am    G          F                       C                G
e|----------------------------------------|----------------------------------------|
B|----------------------------------------|----------------------------------------|
G|----------------------------------------|----------------------------------------|
D|----------------------------------------|-5--------------------------------------|  (x3)
A|-7-----5----------3---------------------|-3----------------5---------------------|
E|-5-----3----------1---------------------|------------------3---------------------|

   1     +     2    +    3    +    4    +   1     +     2    +    3    +    4    +   1  2  3  4
   Am    G          F                       F     Em         Dm                      N.C.
e|----------------------------------------|----------------------------------------|------------|
B|----------------------------------------|----------------------------------------|------------|
G|----------------------------------------|----------------------------------------|------------|
D|----------------------------------------|------------------7----7----7----7----5-|------------|
A|-7-----5----------3---------------------|-3-----1----------5----5----5----5----3-|------------|
E|-5-----3----------1---------------------|-1-----0--------------------------------|------------|


************************************

| PM  Palm mute

************************************

LYRICS:

[Intro]
Yö kuuluu meille

[Verse 1]
Yö saapuu, kadut haltuun
Yhdessä tää mesta vallataan
Ja mul on fiilis, et tällä tiimil
Tää tulee olee jotain mahtavaa
Oon fiiliksis, ihan jatkuvasti
Meil menee iisisti aamuun asti

[Verse 2]
Kämppä tyhjä, ja tällä ryhmäl
Jatkojen jatkotkin järkätään
Ja näissä geimeis, ei tarvi peiffei
Ilman niitäkin pärjätään
Oon fiiliksis, ja nyt on hallus touchi
Eletään kingisti, aamuun asti

[Chorus]
Yö kuuluu meille, ja tää city yhdessä omistetaan
Yö kuuluu meille, sen suojissa säännöt ohitetaan
Me vaan eletään, vedetään hetkeä täysillä, taas eletään
Yö kuuluu meille, meille, meille
Tää city yhdessä omistetaan

[Rap Verse 1]
Herään illal, valmiina yöhön
Juhlat alkaa, valmiina työhön
En kai tuu ikinä pääsemään paheesta pois
Joka viikonloppu täytän kaheksantoist
Pistelen jengille viestii ku mä lähen viettelee
Nikkee ei pitele mikään ku mä lähen liikkeelle
Tän takii herään, se on se syy miksi mä elän

[Bridge]
Aamuun asti, ei pysty jäädä himaan himmaa
Kun meil on hyvä jengi koossa taas
Äijät on messis ja likat fiilaa
Niin me takaisin hollataan
Varikolla ja jengi silti diggaa
Iha sama vaik me kompataan
En osaa skeittaa mut silti flippaa aamuun asti

[Chorus]
Yö kuuluu meille, ja tää city yhdessä omistetaan
Yö kuuluu meille, sen suojissa säännöt ohitetaan
Me vaan eletään, vedetään hetkeä täysillä, taas eletään
Yö kuuluu meille, meille, meille

[Rap Verse 2]
Mä tuun päänahkoja vyös, läpi taivaan ja helvetin
Matkalla yös, Brädi aivanku ennenki
Junnu varo yö voi nappaa sun henkesi,
siks mä valvon vierellä sun matkaa ku enkeli
Yö saa sut tuntemaan nyt on sun hetkesi, elä, nauti, rotsi auki
Pystyssä centterit, vihaajat ei tiiä mihin pystyy tää veljesi
Aistin joka värähdyksen yössä ku Daredevil

Ootsä mukan pannaan hommat futaa
Siihen ei oo kaht sanaa
Kun ne tsiikaa tät nippuu nii leuat tippuu
Ei oo ketään näin mahtavaa
Saman katon alla Brädi sekä Robbari
Ja se nälkänen Nikke A
Yön sankarit sekä pari rokkarii
Kitara soi niin ei itkee saa eiks vaa

[Chorus]
Yö kuuluu meille, ja tää city yhdessä omistetaan
Yö kuuluu meille, sen suojissa säännöt ohitetaan
Me vaan eletään, vedetään hetkeä täysillä taas eletään
Yö kuuluu meille, meille, meille

[Outro]
Yö kuuluu meille
Yö kuuluu meille, (meille, meille)
Me vaan eletään, vedetään hetkeä täysillä taas eletään
Yö kuuluu meille, meille, meille
Tää city yhdessä omistetaan

            
            
Suggest correction
Creating personal tab
Creating personal tab
You can edit any tab online and save it as your Personal.

You can edit, replace or remove any tab part or add personal notes – all changes will be seen only by you.

Personal tabs can be accessed anytime from any device, even offline.
Learn more »
Give kudos to tab author, rate the tab!
1 2 3 4 5
comments
print report bad tab
guest
You may want to rate the tab now too:
select rating
Wanna post a correction for this tab? Suggest correction