Oops, an error
Loading. Please wait.

Sugar tab

by 254
435 views 1 this week
no commentswrite comment
1 2 3 4 5
2 more votes to show rating
add to favorites
×
Save as Personal and add changes to this tab that will be seen only by you. Learn more ›
×
You can save this tab as Personal to edit and correct it or add notes. All changes will be seen only by you. Learn more »
launch autoscroll
font size
0
reset
how to read this tab
guitar tuner
edit
Autoscroll
slow
fast
+/-
esc
set tempo
stop
Author
2:54
"Sugar"

Standard tuning.


[Intro]

Rest for bars.


[Verse]
 G1
e|------------------------|------------------------|------------------------|------------------------|
B|------------------------|------------------------|------------------------|------------------------|
G|------------------------|------------------------|------------------------|------------------------|
D|------------------------|------------------------|------------------------|------------------------|
A|------------------------|12-12-12-12-10-10-10-10-|------------------------|12-12-12-12-10-10-10-10-|
E|12-12-12-12-12-12-12-12-|------------------------|12-12-12-12-12-12-12-12-|------------------------|


e|------------------------|------------------------|------------------------|------------------------|
B|------------------------|------------------------|------------------------|------------------------|
G|------------------------|------------------------|------------------------|------------------------|
D|------------------------|------------------------|------------------------|------------------------|
A|9--9--9--9--9--9--9--9--|9--9--9--9--12-12-12-12-|9--9--9--9--9--9--9--9--|10-10-10-9--9--9--10-10-|
E|------------------------|------------------------|------------------------|------------------------|


e|------------------------|------------------------|------------------------|------------------------|
B|------------------------|------------------------|------------------------|------------------------|
G|------------------------|------------------------|------------------------|------------------------|
D|------------------------|------------------------|------------------------|------------------------|
A|------------------------|12-12-12-12-10-10-10-10-|------------------------|12-12-12-12-10-10-10-10-|
E|12-12-12-12-12-12-12-12-|------------------------|12-12-12-12-12-12-12-12-|------------------------|

  G1
e|------------------------|------------------------|------------------------|------------------------|
B|------------------------|------------------------|------------------------|------------------------|
G|------------------------|------------------------|------------------------|------------------------|
D|------------------------|------------------------|------------------------|------------------------|
A|9--9--9--9--9--9--9--9--|9--9--9--9--12-12-12-12-|9--9--9--9--9--9--9--9--|10-10-10-9--9--9--10-10-|
E|------------------------|------------------------|------------------------|------------------------|
 |G2
e|------------------------|------------------------|------------------------|------------------------|
B|------------------------|------------------------|------------------------|------------------------|
G|------------------------|------------------------|------------------------|------------------------|
D|------------------------|------------------------|------9--------10----9--|------9--------10----9--|
A|------------------------|------------------------|7--7-----7--7-----7-----|7--7-----7--7-----7-----|
E|------------------------|------------------------|------------------------|------------------------|


e|------------------------|------------------------|------------------------|------------------------|
B|------------------------|------------------------|------------------------|------------------------|
G|------------------------|------------------------|------------------------|------------------------|
D|------------------------|------------------------|------------------------|------------------------|
A|------------------------|12-12-12-12-10-10-10-10-|------------------------|12-12-12-12-10-10-10-10-|
E|12-12-12-12-12-12-12-12-|------------------------|12-12-12-12-12-12-12-12-|------------------------|
 |
e|------------------------|------------------------|------------------------|------------------------|
B|------------------------|------------------------|------------------------|------------------------|
G|------------------------|------------------------|------------------------|------------------------|
D|------9--------10----9--|------9--------10----9--|------9--------10----9--|------9--------10----9--|
A|7--7-----7--7-----7-----|7--7-----7--7-----7-----|7--7-----7--7-----7-----|7--7-----7--7-----7-----|
E|------------------------|------------------------|------------------------|------------------------|


e|------------------------|------------------------|------------------------|------------------------|
B|------------------------|------------------------|------------------------|------------------------|
G|------------------------|------------------------|------------------------|------------------------|
D|------------------------|------------------------|------------------------|------------------------|
A|9--9--9--9--9--9--9--9--|9--9--9--9--12-12-12-12-|9--9--9--9--9--9--9--9--|10-10-10-9--9--9--10-10-|
E|------------------------|------------------------|------------------------|------------------------|
 |
e|------------------------|------------------------|------------------------|------------------------|
B|------------------------|------------------------|------------------------|------------------------|
G|------------------------|------------------------|------------------------|------------------------|
D|------9--------10----9--|------9--------10----9--|------9--------10----9--|------9--------10----9--|
A|7--7-----7--7-----7-----|7--7-----7--7-----7-----|7--7-----7--7-----7-----|7--7-----7--7-----7-----|
E|------------------------|------------------------|------------------------|------------------------|

  G2
e|------------------------|------------------------|------------------------|------------------------|
B|------------------------|------------------------|------------------------|------------------------|
G|------------------------|------------------------|------------------------|------------------------|
D|------9--------10----9--|------9--------10----9--|------9--------10----9--|------9--------10----9--|
A|7--7-----7--7-----7-----|7--7-----7--7-----7-----|7--7-----7--7-----7-----|7--7-----7--7-----7-----|
E|------------------------|------------------------|------------------------|------------------------|


[Chorus]
  G1
e|------------------------|------------------------|------------------------|------------------------|
B|------------------------|------------------------|------------------------|------------------------|
G|---7--------------------|---7--------------------|---12-11----------------|---12-11----------------|
D|0-----9-----------------|0-----9-----------------|---------12-7-/9--------|---------12-7-/9--------|
A|------------------------|------------------------|------------------------|------------------------|
E|------------------------|------------------------|------------------------|------------------------|
 |G2                                                                                                     X4
e|------------------------|------------------------|------------------------|------------------------|
B|------------------------|------------------------|------------------------|------------------------|
G|------------------------|------------------------|------------------------|------------------------|
D|14-14-14-14-14-14-14-14-|14-14-14-14-14-14-14-14-|10-10-10-10-10-10-10-10-|9--9--9--9--9--9--9--9--|
A|14-14-14-14-14-14-14-14-|14-14-14-14-14-14-14-14-|10-10-10-10-10-10-10-10-|9--9--9--9--9--9--9--9--|
E|12-12-12-12-12-12-12-12-|12-12-12-12-12-12-12-12-|8--8--8--8--8--8--8--8--|7--7--7--7--7--7--7--7--|


[Break]

Rest fours bars.


[Verse]
 G1
e|------------------------|------------------------|------------------------|------------------------|
B|------------------------|------------------------|------------------------|------------------------|
G|------------------------|------------------------|------------------------|------------------------|
D|------------------------|------------------------|------------------------|------------------------|
A|------------------------|12-12-12-12-10-10-10-10-|------------------------|12-12-12-12-10-10-10-10-|
E|12-12-12-12-12-12-12-12-|------------------------|12-12-12-12-12-12-12-12-|------------------------|


e|------------------------|------------------------|------------------------|------------------------|
B|------------------------|------------------------|------------------------|------------------------|
G|------------------------|------------------------|------------------------|------------------------|
D|------------------------|------------------------|------------------------|------------------------|
A|9--9--9--9--9--9--9--9--|9--9--9--9--12-12-12-12-|9--9--9--9--9--9--9--9--|10-10-10-9--9--9--10-10-|
E|------------------------|------------------------|------------------------|------------------------|


e|------------------------|------------------------|------------------------|------------------------|
B|------------------------|------------------------|------------------------|------------------------|
G|------------------------|------------------------|------------------------|------------------------|
D|------------------------|------------------------|------------------------|------------------------|
A|------------------------|12-12-12-12-10-10-10-10-|------------------------|12-12-12-12-10-10-10-10-|
E|12-12-12-12-12-12-12-12-|------------------------|12-12-12-12-12-12-12-12-|------------------------|

  G1
e|------------------------|------------------------|------------------------|------------------------|
B|------------------------|------------------------|------------------------|------------------------|
G|------------------------|------------------------|------------------------|------------------------|
D|------------------------|------------------------|------------------------|------------------------|
A|9--9--9--9--9--9--9--9--|9--9--9--9--12-12-12-12-|9--9--9--9--9--9--9--9--|10-10-10-9--9--9--10-10-|
E|------------------------|------------------------|------------------------|------------------------|
 |G2
e|------------------------|------------------------|------------------------|------------------------|
B|------------------------|------------------------|------------------------|------------------------|
G|------------------------|------------------------|------------------------|------------------------|
D|------------------------|------------------------|------9--------10----9--|------9--------10----9--|
A|------------------------|------------------------|7--7-----7--7-----7-----|7--7-----7--7-----7-----|
E|------------------------|------------------------|------------------------|------------------------|


e|------------------------|------------------------|------------------------|------------------------|
B|------------------------|------------------------|------------------------|------------------------|
G|------------------------|------------------------|------------------------|------------------------|
D|------------------------|------------------------|------------------------|------------------------|
A|------------------------|12-12-12-12-10-10-10-10-|------------------------|12-12-12-12-10-10-10-10-|
E|12-12-12-12-12-12-12-12-|------------------------|12-12-12-12-12-12-12-12-|------------------------|
 |
e|------------------------|------------------------|------------------------|------------------------|
B|------------------------|------------------------|------------------------|------------------------|
G|------------------------|------------------------|------------------------|------------------------|
D|------9--------10----9--|------9--------10----9--|------9--------10----9--|------9--------10----9--|
A|7--7-----7--7-----7-----|7--7-----7--7-----7-----|7--7-----7--7-----7-----|7--7-----7--7-----7-----|
E|------------------------|------------------------|------------------------|------------------------|


e|------------------------|------------------------|------------------------|------------------------|
B|------------------------|------------------------|------------------------|------------------------|
G|------------------------|------------------------|------------------------|------------------------|
D|------------------------|------------------------|------------------------|------------------------|
A|9--9--9--9--9--9--9--9--|9--9--9--9--12-12-12-12-|9--9--9--9--9--9--9--9--|10-10-10-9--9--9--10-10-|
E|------------------------|------------------------|------------------------|------------------------|
 |
e|------------------------|------------------------|------------------------|------------------------|
B|------------------------|------------------------|------------------------|------------------------|
G|------------------------|------------------------|------------------------|------------------------|
D|------9--------10----9--|------9--------10----9--|------9--------10----9--|------9--------10----9--|
A|7--7-----7--7-----7-----|7--7-----7--7-----7-----|7--7-----7--7-----7-----|7--7-----7--7-----7-----|
E|------------------------|------------------------|------------------------|------------------------|

  G2
e|------------------------|------------------------|------------------------|------------------------|
B|------------------------|------------------------|------------------------|------------------------|
G|------------------------|------------------------|------------------------|------------------------|
D|------9--------10----9--|------9--------10----9--|------9--------10----9--|------9--------10----9--|
A|7--7-----7--7-----7-----|7--7-----7--7-----7-----|7--7-----7--7-----7-----|7--7-----7--7-----7-----|
E|------------------------|------------------------|------------------------|------------------------|


[Chorus]

e|------------------------|------------------------|------------------------|------------------------|
B|------------------------|------------------------|------------------------|------------------------|
G|---7--------------------|---7--------------------|---12-11----------------|---12-11----------------|
D|0-----9-----------------|0-----9-----------------|---------12-7-/9--------|---------12-7-/9--------|
A|------------------------|------------------------|------------------------|------------------------|
E|------------------------|------------------------|------------------------|------------------------|
 |                                                                                                     X4
e|------------------------|------------------------|------------------------|------------------------|
B|------------------------|------------------------|------------------------|------------------------|
G|------------------------|------------------------|------------------------|------------------------|
D|14-14-14-14-14-14-14-14-|14-14-14-14-14-14-14-14-|10-10-10-10-10-10-10-10-|9--9--9--9--9--9--9--9--|
A|14-14-14-14-14-14-14-14-|14-14-14-14-14-14-14-14-|10-10-10-10-10-10-10-10-|9--9--9--9--9--9--9--9--|
E|12-12-12-12-12-12-12-12-|12-12-12-12-12-12-12-12-|8--8--8--8--8--8--8--8--|7--7--7--7--7--7--7--7--|


[Break]

Rest four bars.


[Outro]

e|------------10----------|10----------10----------|------------10----------|10----------10----------|
B|---12----12----12----12-|---12----12-------10----|---12----12----12----12-|---12----12-------10-10b|
G|------------------------|---------------12----12~|------------------------|---------------12-------|
D|------------------------|------------------------|------------------------|------------------------|
A|------------------------|------------------------|------------------------|------------------------|
E|------------------------|------------------------|------------------------|------------------------|
 |
e|------------------------|------------------------|------------------------|------------------------|
B|------------------------|------------------------|------------------------|------------------------|
G|------------------------|------------------------|------------------------|------------------------|
D|------------------------|------------------------|------------------------|------------------------|
A|------------------------|------------------------|------------------------|------------------------|
E|0--0--0--0--0--0--0--0--|0--0--0--0--0--0--0--0--|0--0--0--0--0--0--0--0--|0--0--0--0--0--0--0--0--|


e|------------10----------|10----------10----------|------------10----------|10----------10----------|
B|---12----12----12----12-|---12----12-------10----|---12----12----12----12-|---12----12-------10----|
G|------------------------|---------------12----12~|------------------------|---------------12----12~|
D|------------------------|------------------------|------------------------|------------------------|
A|------------------------|------------------------|------------------------|------------------------|
E|------------------------|------------------------|------------------------|------------------------|
 |
e|------------------------|------------------------|------------------------|------------------------|
B|------------------------|------------------------|------------------------|------------------------|
G|------------------------|------------------------|------------------------|------------------------|
D|------------------------|------------------------|------------------------|------------------------|
A|------------------------|------------------------|------------------------|------------------------|
E|5--5--5--5--5--5--5--5--|5--5--5--5--5--5--5--5--|8--8--8--8--8--8--8--8--|8--8--8--8--8--8--8--8--|



e|------------10----------|10----------10----------|------------10----------|10----------10----------|
B|---12----12----12----12-|---12----12-------10----|---12----12----12----12-|---12----12-------10-10b|
G|------------------------|---------------12----12~|------------------------|---------------12-------|
D|------------------------|------------------------|------------------------|------------------------|
A|------------------------|------------------------|------------------------|------------------------|
E|------------------------|------------------------|------------------------|------------------------|
 |
e|------------------------|------------------------|------------------------|------------------------|
B|------------------------|------------------------|------------------------|------------------------|
G|------------------------|------------------------|------------------------|------------------------|
D|------------------------|------------------------|------------------------|------------------------|
A|------------------------|------------------------|------------------------|------------------------|
E|0--0--0--0--0--0--0--0--|0--0--0--0--0--0--0--0--|0--0--0--0--0--0--0--0--|0--0--0--0--0--0--0--0--|


e|------------10----------|10----------10----------|------------10----------|10----------10----------|
B|---12----12----12----12-|---12----12-------10-10b|---12----12----12----12-|---12----12-------10----|
G|------------------------|---------------12-------|------------------------|---------------12----12-|
D|------------------------|------------------------|------------------------|------------------------|
A|------------------------|------------------------|------------------------|------------------------|
E|------------------------|------------------------|------------------------|------------------------|
 |
e|------------------------|------------------------|------------------------|------------------------|
B|------------------------|------------------------|------------------------|------------------------|
G|------------------------|------------------------|------------------------|------------------------|
D|------------------------|------------------------|------------------------|------------------------|
A|------------------------|------------------------|------------------------|------------------------|
E|5--5--5--5--5--5--5--5--|5--5--5--5--5--5--5--5--|8--8--8--8--8--8--8--8--|8--8--8--8--8--8--8--8--|




************************************

| b   Bend
| /   Slide up
| ~   Vibrato

************************************

            
            
Suggest correction
Creating personal tab
Creating personal tab
You can edit any tab online and save it as your Personal.

You can edit, replace or remove any tab part or add personal notes – all changes will be seen only by you.

Personal tabs can be accessed anytime from any device, even offline.
Learn more »
Give kudos to tab author, rate the tab!
1 2 3 4 5
comments
print report bad tab
guest
You may want to rate the tab now too:
select rating
Wanna post a correction for this tab? Suggest correction