Oops, an error
Loading. Please wait.

Schweden Schweden chords

2,835 views 6 this week
1 commentread comment
1 2 3 4 5
1 last vote to show rating
add to favorites
×
Save as Personal and add changes to this tab that will be seen only by you. Learn more ›
×
You can save this tab as Personal to edit and correct it or add notes. All changes will be seen only by you. Learn more »
launch autoscroll
font size
0
reset
transpose
0
reset
display chords
guitar tuner
edit
Autoscroll
slow
fast
+/-
esc
set tempo
stop
Difficulty
Strumming
There is no strumming pattern for this song yet. and get +5 IQ
Intro: 
   A       E          D            A
e---------------------5-5-0-2-5-5--0-0-0-0--0-0--
h--2-2-0---2-2-0---------------------------------
g--------2-------2------------------------------- 


D   A   E



        A         E                 D             A
Vilken tur lilla jag har haft, jag känner mej så hedrad.
Att få växa upp i ditt sköte e ett privilegium som få har haft.
Så tack mor & far, tack mina lärare.
Och tack alla vi, alla vi som har det så bra.


     C#m            E
Men Svärje, Svärje fosterland...  x2
D               A         E
säj mej är det verkligen sant?



Mellanspel: 
   E
e--0-0-3-5-7-7-5-3-0---- 



Jag har fått lära mej att tacka för maten
och ja har fått lära mej att jag mår bra, jag mår bra, jag mår bra.
Och jag känner efter och försöker. Man får ju inte bli en sån där ni vet,
en sån som står och hänger, en sån som står och glor.


Jag har fått lära mej att aldrig ljuga om någonting,
aldrig sno på varuhus, för du vet hur fel de e.
Och käfta aldrig med äldre folk för du vet att dom alltid har rätt.
Men konstigt nog mår jag dåligt i dag precis som jag gjorde i går. 


            
            
Suggest correction
Creating personal tab
Creating personal tab
You can edit any tab online and save it as your Personal.

You can edit, replace or remove any tab part or add personal notes – all changes will be seen only by you.

Personal tabs can be accessed anytime from any device, even offline.
Learn more »
Give kudos to tab author, rate the tab!
1 2 3 4 5
comments
print report bad tab
1 comment total.
0 reply
filipfur 84 Aug 18, 2015 07:13 AM

Intro:

e|--------------------------------------0----5--------------0----5-5-5-5-----|
B|---------------------5-------------/5---7--5--7---5--/10-10----5-5-7-5-----|
G|--4b5--4b5r4--2--4b6---4b6r4--2--------------------------------------------|
D|---------------------------------------------------------------------------|
A|---------------------------------------------------------------------------|
D|---------------------------------------------------------------------------|

guest
Wanna post a correction for this tab? Suggest correction