Oops, an error
Loading. Please wait.

Warroir In Woolworths tab

1,777 views 6 this week
3 commentsread comments
1 2 3 4 5
2 more votes to show rating
add to favorites
×
Save as Personal and add changes to this tab that will be seen only by you. Learn more ›
×
You can save this tab as Personal to edit and correct it or add notes. All changes will be seen only by you. Learn more »
launch autoscroll
font size
0
reset
how to read this tab
guitar tuner
edit
Autoscroll
slow
fast
+/-
esc
set tempo
stop
Author
Difficulty


Main Riff:
e|------------------------------------------|
B|------------------------------------------|
G|------------------------------------------|
D|------------------------------2b3b2-------|
A|--0--2--5---0--2--5--0--2--5---------5----|
E|------------------------------------------|

Verse:
e|---------------|
B|---------------|
G|--7--7---------|
D|--7--7--5--7---|
A|--5--5--5--7---|
E|--------3--5---|
play each multiple times and listen for timing

Chorus:
e|--------------------------|
B|--------------------------|
G|--7--5--7--5--7--7-5-6-7--|
D|--7--5--7--5--5-----------|
A|--5--3--5--3--5-----------|
E|--------------------------|

Suggest correction
Creating personal tab
Creating personal tab
You can edit any tab online and save it as your Personal.

You can edit, replace or remove any tab part or add personal notes – all changes will be seen only by you.

Personal tabs can be accessed anytime from any device, even offline.
Learn more »
Give kudos to tab author, rate the tab!
1 2 3 4 5
comments
print report bad tab
3 comments total.
0 reply
M.G. Eddie 10 Oct 18, 2011 04:56 PM

I think the intro should sound like this

A|-------5--------5--------5--7--5--
E|-5--7-----5--7-----5--7-----------

0 reply
Guitarpunk1977 50 Jun 16, 2015 08:35 AM, edited on June 17 2015, 12:51 pm

I agree with M.G.Eddie but I think it's a note short? this is how I play it:

A|---------5---------5---------5--9--7--5--
E|--5--7-----5--7-----5--7-----------------

0 reply
fionnsilento 10 Jul 01, 2017 08:46 AM

I think the riff is how M. G. Eddie describes, but the A string 7 is bent quickly.

guest
You may want to rate the tab now too:
select rating
Wanna post a correction for this tab? Suggest correction