Oops, an error
Loading. Please wait.

Stay Acoustic tab

version 3
version 3

Whole song

by Cueshé
6,771 views 36 this week
4 commentsread comments
1 2 3 4 5
x 7
add to favorites
×
Save as Personal and add changes to this tab that will be seen only by you. Learn more ›
×
You can save this tab as Personal to edit and correct it or add notes. All changes will be seen only by you. Learn more »
launch autoscroll
font size
0
reset
how to read this tab
guitar tuner
edit
Autoscroll
slow
fast
+/-
esc
set tempo
stop
Author
Song Name   - Stay (ACOUSTIC)
Artist Name - Cueshe


              -----------------------------
                   Stay ( Acoustic )
              -----------------------------



Tuning - Standard (EADGBe)

INTRO PART 1 (0:00 - 0:12)

Guitar 1
e|-------------------------------|    
B|-------------------------------|    
G|-----------------4h6-6-6-6-6---|    
D|---4h6-6-6-6-6-----------------|     
A|-------------------------------|    
E|-------------------------------|

Guitar 2
e|---0-------------0-------------|    
B|---0-------------2-------------|     
G|---1-------------2-------------|    
D|---2-------------2-------------|    
A|---2-------------0-------------|    
E|---0-------------0-------------|

Guitar 1
e|----------------------------------|    
B|----------------------------------|    
G|----------------------------------|    
D|---4h6-6-6-6-6--4-4-4h6-6-6-6-6---|     
A|----------------------------------|    
E|----------------------------------|

Guitar 2
e|---0----------------0-------------|    
B|---0----------------0-------------|   
G|---1----------------1-------------|     
D|---2----------------2-------------|     
A|---2----------------2-------------|    
E|---0----------------0-------------|



INTRO PART 2 (0:13 - 0:22)

Guitar 1
e|-------------------------------|   
B|-------------------------------|   
G|-------------------------------|   
D|---4/6-6-4-6-4-6-4-6-4-6-6-4---|    
A|-------------------------------|
E|-------------------------------|

Guitar 2
e|---0---------------------------|    
B|---0---------------------------|    
G|---1---------------------------|    
D|---2---------------------------|    
A|---2---------------------------|   
E|---0---------------------------|

Guitar 1
e|-----------------------------|    
B|-----------------------------|    
G|-----------------------------|    
D|---6/7-7-6-7-6-7-6-7-6-7-9---|    
A|-----------------------------|
E|-----------------------------|

Guitar 2
e|---0-------------------------|    
B|---0-------------------------|    
G|---2-------------------------|   
D|---2-------------------------|
A|---0-------------------------|
E|---0-------------------------|

Guitar 1                             
e|---------------------------------| 
B|---------------------------------|   
G|---------------------------------|  
D|---4/6-6-4-6-4-6-4-6-4-6-6-2``---|  
A|---------------------------------|
E|---------------------------------| 
                                        
Guitar 2                                
e|---0------------------------0``--|  
B|---0------------------------0``--| 
G|---1------------------------1``--|  
D|---2------------------------2``--| 
A|---2------------------------2``--| 
E|---0------------------------0``--|

VERSE 1   (0:25 - 0:49)

            E    A2
       e|---0-----0---|
       B|---0-----0---|
       G|---1-----2---|
       D|---2-----2---|
       A|---2-----0---|
       E|---0-----0---|


      E
         I believe,
            A2                              E
         we shouldn't let the moment pass us by
      E
         Life's too short,
            A2
         We shoudn't wait for the water
               E
         to run dry.



REFRAIN 1 (0:49 - 1:01)


            B        C#m        D         E
       e|---2---------4---------5---------7---|
       B|---4---------5---------7---------9---|
       G|---4---------6---------7---------9---|
       D|---4---------6---------7---------9---|
       A|---2---------4---------5---------7---|
       E|---X---------X---------X---------X---|

     B
        Think about it,
                  C#m
        Coz' we only have one shot at destiny.
     D
        All I'm asking,
                   E
        Could it possibly be you and me



e|----7-----9-----10-----12----|  
B|----7-----9-----10-----12----|  
G|-----------------------------|   
D|-----------------------------|   
A|-----------------------------|    
E|-----------------------------|


CHORUS 1 (1:02 - 1:25)


            A        C#m        D        Bm
       e|---0---------4---------5---------2---|
       B|---2---------5---------7---------3---|
       G|---2---------6---------7---------4---|
       D|---2---------6---------7---------4---|
       A|---0---------4---------5---------2---|
       E|---X---------X---------X---------X---|



   A                
       So if you'd still go,
                   D*
       I'll understand,
                Bm
       Would you give me something,
                        A
       just to hold on to.

                    C#m
       And if you'll stay,
                     D*2
       I'll hold your hand,
                Bm
       Coz I'm truly, madly, crazy,
 
       in love with....



Guitar 1
e|---5---7---5---7---|  
B|---7---5---7---5---|   
G|---7---7---7---7---| 
D|---7---7---7---7---|  
A|---5---5---5---5---|
E|---X---X---X---X---|



Guitar 1
e|-------------------------------|   
B|-------------------------------|   
G|-------------------------------|   
D|---4/6-6-4-6-4-6-4-6-4-6-6-4---|   
A|-------------------------------|
E|-------------------------------|

Guitar 2
e|---0---------------------------|   
B|---0---------------------------|   
G|---1---------------------------|    
D|---2---------------------------|    
A|---2---------------------------|    
E|---0---------------------------|

Guitar 1
e|-----------------------------|    
B|-----------------------------|    
G|-----------------------------|    
D|---6/7-7-6-7-6-7-6-7-6-7-9---|    
A|-----------------------------|
E|-----------------------------|

Guitar 2
e|---0-------------------------|   
B|---0-------------------------|   
G|---2-------------------------|   
D|---2-------------------------|
A|---0-------------------------|
E|---0-------------------------|

Guitar 1                            
e|-------------------------------|  
B|-------------------------------|    
G|-------------------------------|  
D|---4/6-6-4-6-4-6-4-6-4-6-6-2---|  
A|-------------------------------|   
E|-------------------------------|   
                                        
Guitar 2                                
e|---0------------------------0--|    
B|---0------------------------0--|  
G|---1------------------------1--|  
D|---2------------------------2--| 
A|---2------------------------2--|  
E|---0------------------------0--|

VERSE 2 (1:38 - 2:02)
W
            E    A2
       e|---0-----0---|
       B|---0-----0---|
       G|---1-----2---|
       D|---2-----2---|
       A|---2-----0---|
       E|---0-----0---|


    E             
       The time has come, 
           A2                   E   
       for us to go, our separate ways
    E 
       God forbid,
              A2                   E
       but my mind is going crazy today...



REFRAIN 2 (2:02 - 2:15)


            B        C#m        D         E
       e|---2---------0---------5---------7---|
       B|---4---------5---------7---------9---|
       G|---4---------6---------7---------9---|
       D|---4---------6---------7---------9---|
       A|---2---------4---------5---------7---|
       E|---X---------X---------X---------X---|

    B
       I feel so cold,
               C#m
       Feel so numb,
                                          D
       I'm having nightmares but I'm awake.
           
       Help me Lord,
                  E
       Fight this loneliness,

       Take this pain away.     



e|----7-----9-----10-----12----|  
B|----7-----9-----10-----12----|  
G|-----------------------------|   
D|-----------------------------|  
A|-----------------------------|   
E|-----------------------------|

CHORUS 2 (2:15 - 2:38)


            A        C#m        D        Bm
       e|---0---------4---------5---------2---|
       B|---2---------5---------7---------3---|
       G|---2---------6---------7---------4---|
       D|---2---------6---------7---------4---|
       A|---0---------4---------5---------2---|
       E|---X---------X---------X---------X---|

NOTE : Guitar 1 and Guitar 2 should play in unison for the chorus.

   A``                
       So if you'd still go,
                   D*
       I'll understand,
                Bm
       Would you give me something,
                        A
       just to hold on to.

                    C#m
       And if you'll stay,
                     D*
       I'll hold your hand,
                Bm
       Coz I'm truly, madly, crazy,
 
       in love with....

SOLO PART (2:38 - 3:01)


            C         D         E
       e|---0---------2---------0---|
       B|---1---------3---------0---|
       G|---0---------2---------1---|
       D|---2---------0---------2---|
       A|---3---------0---------2---|
       E|---0---------X---------0---|

      C                                  D
  ...you...                              
e|----------------------------10----|---12-10--------------------------------------|
B|---------------------8-8/10-------|---------12-12\-------------------------------|
G|-----------------7/9--------------|-----------------12-12\11-11-11\9-9-9/11-11---|
D|--------------10------------------|----------------------------------------------|
A|---------7/10---------------------|----------------------------------------------|
E|----8/10--------------------------|----------------------------------------------|

     E

e|------------12----10----10h12----12p10----12p10----10----10h12----12p10----------|
B|---10/12-12----12----12-------12-------12-------12----12-------12-------12-12\10-|
G|---------------------------------------------------------------------------------|
D|---------------------------------------------------------------------------------|
A|---------------------------------------------------------------------------------|
E|---------------------------------------------------------------------------------|

     C                                                                                   

e|-----------------12/15-12--------------|    
B|-------------13-----------13-----------|    
G|--------9/12-----------------12--------|    
D|--10-12-------------------------14-12--|
A|----------------------------------------|

     D                                          E

e|---15p14-------12-----------17----15----14-12----|
B|---------15-12----15-12-----------------------12-|
G|------------------------14-----14----14----------|
D|-------------------------------------------------|
A|-------------------------------------------------|
E|-------------------------------------------------|
low:
            A        C#m        D        Bm
       e|---0---------4---------2---------2---|
       B|---2---------5---------3---------3---|
       G|---2---------6---------2---------4---|
       D|---2---------6---------0---------4---|
       A|---0---------4---------0---------2---|
       E|---X---------X---------X---------X---|

NOTE : Guitar 1 and Guitar 2 should play in unison for the chorus.

   A``                
       So if you'd still go,
                   D
       I'll understand,
                Bm
       Would you give me something,
                        A
       just to hold on to.

                    C#m
       And if you'll stay,
                     D
       I'll hold your hand,
                Bm
       Coz I'm truly, madly, crazy,
                     A
       in love with you.


                        C#m
       Now that you're gone
                 D
       I'm all alone,
             Bm
       Still hoping that,
                            A
       you would come back home.

                       C#m
       Don't care how long,
                           D
       But I'm willing to wait.
                 Bm``
       Coz I'm truly, madly, crazy,
                        A*1
       in love with you. 

Guitar 1:

e|---9h10p9-----------12-----------9h10p9------9h10p9----------12---------9h10p9--------|
B|----------10---10----------10-10--------10----------10---9--------10-10--------10-----|
G|-------------9----9------9-----------------9-----------9---9----9-----------------9---|
D|--------------------------------------------------------------------------------------|
A|--------------------------------------------------------------------------------------|
E|--------------------------------------------------------------------------------------|

This sequence is played twice in the final chorus. Specifically in the times (3:25 - 3:30)
and (3:36 - 3:42). 

originally from: Mark Ryan Tripole
want to share the great tab from Mr. Mark here in UG.
just get connected to him : fatass_98@hotmail.com
                            mastafb@yahoo.com

            
            
Suggest correction
Creating personal tab
Creating personal tab
You can edit any tab online and save it as your Personal.

You can edit, replace or remove any tab part or add personal notes – all changes will be seen only by you.

Personal tabs can be accessed anytime from any device, even offline.
Learn more »
comments
print report bad tab
4 comments total. Showing first comments.
0 reply
xaiza 10 Oct 17, 2005 07:59 PM

copy paste mo lang ung gawa sa may mxtabs.net... wala kang originality.. pati ung especially for you mo, iba nman ung lyrics.. ulol!! wag ka ng mag submit sa ultimate-guitar.com..

0 reply
ganret98 10 Jan 22, 2006 12:32 AM

Tanung lng, accurate ba 2? ksi di ko makuha yung solo...

0 reply
kulangot 10 Feb 10, 2006 02:26 AM

puro ka lang kopya unggoy wag ka ng mag tab gago!!!!!

guest
You may want to rate the tab now too:
select rating
Wanna post a correction for this tab? Suggest correction