Oops, an error
Loading. Please wait.

La Herida tab

version 1
version 1

Interactive

7,012 views 6 this week
2 commentsread comments
1 2 3 4 5
x 4
add to favorites
×
Save as Personal and add changes to this tab that will be seen only by you. Learn more ›
×
You can save this tab as Personal to edit and correct it or add notes. All changes will be seen only by you. Learn more »
launch autoscroll
font size
0
reset
how to read this tab
guitar tuner
edit
Autoscroll
slow
fast
+/-
esc
set tempo
stop
Author
-=Intro=-
    Am                       G                         Dm                       Am   
e|--0-0---0h1p0--------------1-1---2h3p2---------------1-1-------5---4---3---2--0--|]
B|--1--1-------3p1p0---------0--0--------3-2-0---------2---2---6---5---4---3----1--|]
G|--2---2-----------2-0------0----0------------3-2-0---3-----3------------------2--|]
D|--2-------------------2-0--0-----------------------3--------------------------2--|]
A|--0------------------------2--------------------------------------------------0--|]
E|---------------------------3-----------------------------------------------------|]

-=Coro=-
    C		    Em		     F             Am
     Siempre es la misma función, el mismo espectador,
    C		Em		F                G 
     el mismo teatro, en el que tantas veces actuó.
    Am   C         G          Dm      Am
     Perder la razón en un juego tan real
    C		     Em      G			       Am
     quizás fuera un error, cúrame esta herida, por favor.

e|--5----8----7----5------3-1p0--|]
B|----5----5----5----5/1---------|]
G|-------------------------------|]
D|-------------------------------|]
A|-------------------------------|]
E|-------------------------------|]

-=Verso 1=-
 		 Am		G
     Que hay en dos amigos cuando después de todo
	F		    Am
     parecen perdidos y prefieren a otros?
	  Am			G
     Que dan lerdas manos, ignorando lo dado,
	   F				Am
     si antaño se estrecharon, ¿ahora están engañados?
	      Am		  G
     ¿Que les hizo alejarse de su orilla intranquila,
    F			     Am
     tan siquiera un instante piensan en esos días?

-=Coro=-
    C		    Em		     F             Am
     Siempre es la misma función, el mismo espectador,
    C		Em		F                G 
     el mismo teatro, en el que tantas veces actuó.
    Am   C         G          Dm      Am
     Perder la razón en un juego tan real
    C		     Em      G			       Am
     quizás fuera un error, cúrame esta herida, por favor.

    Am                       G                         Dm                       Am   
e|--0-0---0h1p0--------------1-1---2h3p2---------------1-1-------5---4---3---2--0--|]
B|--1--1-------3p1p0---------0--0--------3-2-0---------2---2---6---5---4---3----1--|]
G|--2---2-----------2-0------0----0------------3-2-0---3-----3------------------2--|]
D|--2-------------------2-0--0-----------------------3--------------------------2--|]
A|--0------------------------2--------------------------------------------------0--|]
E|---------------------------3-----------------------------------------------------|]

-=Verso 2=-
     Am                       G
     siempre he preferido un beso prolongado,
            F                       Am 	 
     aunque sepa que miente, aunque sepa que es falso.
     Am                       G                          F 
     ¿que demonios ocurre cuando miradas no se encuentran?
                            Am
     la pelea de gallos, se admiten apuestas.
     Am                        G
     ¿quien busco abrigo en algún otro lugar?
            F                 Am
     ¿es posible que el frío venga con la edad?

-=Coro=-
    C		    Em		     F             Am
     Siempre es la misma función, el mismo espectador,
    C		Em		F                G 
     el mismo teatro, en el que tantas veces actuó.
    Am   C         G          Dm      Am
     Perder la razón en un juego tan real
    C		     Em      G			       Am
     quizás fuera un error, cúrame esta herida, por favor.


Any Comment please email me, ragarideath@hotmail.com
Tabb by: Ramón Guillermo Galáz Rios  Tijuana, BC, México.

            
            
Suggest correction
Creating personal tab
Creating personal tab
You can edit any tab online and save it as your Personal.

You can edit, replace or remove any tab part or add personal notes – all changes will be seen only by you.

Personal tabs can be accessed anytime from any device, even offline.
Learn more »
comments
print report bad tab
2 comments total.
0 reply
ximo 10 Sep 17, 2009 07:54 AM

INTRO 3 veces (1 vez la guitarra, 2 veces mientras toca la armónica)
E-0--0---0/1/0-0-------3—-3-----------------1---1—-1-1/3-0/1--0----------
B-1—--1-------3-3-1-0—-3---3---3/5/3-3------3----3-----------3—1/3-1-1---
G-2----2-------------0-0----0-------5-5-4-0-2-2---2----------------2—-2--
D-2--------------------0--------------------0----------------------2---2-
A-0--------------------2--------------------0----------------------0-----
E-0--------------------3--------------------0----------------------------

E------------------------------------------------------------------------
B-0/1/0-0----------------------------------------------------------------
G------2—0/2/0-----------------------------------------------------------
D-------------2-0--------------------------------------------------------
A------------------------------------------------------------------------
E------------------------------------------------------------------------

0 reply
atkws 10 Dec 31, 2012 08:22 PM

I think the first part is easier if you play it like this, however as you play it is the same. Just an advise.

E-0--0---0/1/0-0-------3--3-----------------1---1--1-1/3-0/1--0----------
B-1---1-------3-3-1-0--3---3---3/5/3-3------3----3-----------3-1/3-1-1---
G-2----2-------------0-0----0-------5-5-4-0-2-2---2----------------2--2--
D-2--------------------0--------------------0----------------------2---2-
A-0--------------------2--------------------0----------------------0-----
E-0--------------------3--------------------0----------------------------

E------------------------------------------------------------------------
B-0/1/0-0----------------------------------------------------------------
G------2-0/2/0-----------------------------------------------------------
D-------------2-0--------------------------------------------------------
A------------------------------------------------------------------------
E------------------------------------------------------------------------

guest
You may want to rate the tab now too:
select rating
Wanna post a correction for this tab? Suggest correction