Oops, an error
Loading. Please wait.

Sock Hop tab

1,132 views 3 this week
no commentswrite comment
1 2 3 4 5
3 more votes to show rating
add to favorites
×
Save as Personal and add changes to this tab that will be seen only by you. Learn more ›
×
You can save this tab as Personal to edit and correct it or add notes. All changes will be seen only by you. Learn more »
launch autoscroll
font size
0
reset
how to read this tab
guitar tuner
edit
Autoscroll
slow
fast
+/-
esc
set tempo
stop
Song: Sock Hop
Artist: All-Time Quarterback (Ben Gibbard)
Tuning: Standard

Capo on 5th Fret

C				Am
It was the first two weeks of autumn	
F					     D		      G
I kissed you on the cheek and gave you flowers out of season
C				Am
All the people at the drive in 
F					     D		      G
Make out with eachother until the second feature is


Closing, at the end and your roaming
E|-----------------------------------------------------|
B|-----------------------------------------------------|
G|---0---0---0---0---0---0---0---0---------------------|
D|--(2)-(2)-(2)-(2)-(2)-(2)-(2)-(2)--------------------|
A|--2---2---3---3---7---7---5---5----------------------|
E|-----------------------------------------------------|

To find your keys in the lot
E|-----------------------------------------------------|
B|-----------------------------------------------------|
G|---0---0---0---0---0---0---0---0---------------------|
D|--(2)-(2)-(2)-(2)-(2)-(2)-(2)-(2)--------------------|
A|--2---2---3---3---7---7---5---5----------------------|
E|-----------------------------------------------------|

C				Am
I took you out on Friday
F					     D		      G
And we shared a milk shake at the sock hop when we were done
C				Am
We went to watch the sunset
F					     D		      G
But it never sank as deep as my heart did

Closing, at the end and your roaming
E|-----------------------------------------------------|
B|-----------------------------------------------------|
G|---0---0---0---0---0---0---0---0---------------------|
D|--(2)-(2)-(2)-(2)-(2)-(2)-(2)-(2)--------------------|
A|--2---2---3---3---7---7---5---5----------------------|
E|-----------------------------------------------------|
Closing, at the end and your roaming 
E|-----------------------------------------------------|
B|-----------------------------------------------------|
G|---0---0---0---0---0---0---0---0---------------------|
D|--(2)-(2)-(2)-(2)-(2)-(2)-(2)-(2)--------------------|
A|--2---2---3---3---7---7---5---5----------------------|
E|-----------------------------------------------------|
To find your keys in the lot
E|-----------------------------------------------------|
B|-----------------------------------------------------|
G|---0---0---0---0---0---0---0---0---------------------|
D|--(2)-(2)-(2)-(2)-(2)-(2)-(2)-(2)--------------------|
A|--2---2---3---3---7---7---5---5----------------------|
E|-----------------------------------------------------|

Outro-
C				Am
F					     D		      G
C				Am
F					     D		      G

End on C
Suggest correction
Creating personal tab
Creating personal tab
You can edit any tab online and save it as your Personal.

You can edit, replace or remove any tab part or add personal notes – all changes will be seen only by you.

Personal tabs can be accessed anytime from any device, even offline.
Learn more »
Give kudos to tab author, rate the tab!
1 2 3 4 5
comments
print report bad tab
guest
You may want to rate the tab now too:
select rating
Wanna post a correction for this tab? Suggest correction