Oops, an error
Loading. Please wait.
We have an official Ace Of Spades tab made by UG professional guitarists. Check out the tab »
×
28,710 views 15 this week
no commentswrite comment
1 2 3 4 5
x 4
add to favorites
×
Save as Personal and add changes to this tab that will be seen only by you. Learn more ›
×
You can save this tab as Personal to edit and correct it or add notes. All changes will be seen only by you. Learn more »
launch autoscroll
font size
0
reset
how to read this tab
guitar tuner
backing track
0:00
0:00
edit
Autoscroll
slow
fast
+/-
esc
set tempo
stop
Author
Difficulty
MOTORHEAD - ACE OF SPADES
ACE OF SPADES

Eb, Bb, Gb, Db, Ab, Eb

[Intro]
(Bass)
                            
e|-----------------------------------|
B|-----------------------------------|
G|o---------------------------------o|
D|o---------------------------------o|
A|-----------------------------------|
E|-----------------------------------|(x4)

[Main Riff]
                            
e|-----------------------------------|
B|-----------------------------------|
G|o---------------------------------o|
D|o-----------------9~~---8~~---7~~-o|
A|-----------------------------------|
E|--0---0--0---0--0-----0-----0------|(x4)

[Verse Riff]

e|-------------------------------------------------------------------|
B|-------------------------------------------------------------------|
G|-------------------------------------------------------------------|
D|-------------------------------------------------------------------|
A|--5~~~~~~~~~~~~~~~~~~~~~~~~~~~~~~-5~~~~~~~~~~~~~~~~~~~~~~~~~~~~~~--|
E|--3~~~~~~~~~~~~~~~~~~~~~~~~~~~~~~-3~~~~~~~~~~~~~~~~~~~~~~~~~~~~~~--|


e|-------------------------------------------------------------------|
B|-------------------------------------------------------------------|
G|-------------------------------------------------------------------|
D|-------------------------------------------------------------------|
A|--5~~~~~~~~~~~~~~~~~~~~~~~~~~~~~~-5~~~~-5~~~~-5~~~~-5~~~~-5~~-5~~--|
E|--3~~~~~~~~~~~~~~~~~~~~~~~~~~~~~~-3~~~~-3~~~~-3~~~~-3~~~~-3~~-3~~--|

[Fill 1]

e|-----------------------------------|
B|---10b~r-8~-10-8~--10b~r-8~--------|
G|o---------------------------9~~~\-o|
D|o---------------------------------o|
A|-----------------------------------|
E|-----------------------------------|

[Verse Riff 2]

e|-------------------------------------------------------------------|
B|-------------------------------------------------------------------|
G|-------------------------------------------------------------------|
D|--7~~~~~~~~~~~~~~~~~~~~~~~~~~~~~~-5~~~~~~~~~~~~~~~~~~~~~~~~~~~~~~--|
A|--5~~~~~~~~~~~~~~~~~~~~~~~~~~~~~~-3~~~~~~~~~~~~~~~~~~~~~~~~~~~~~~--|
E|-------------------------------------------------------------------|

 [Fill 1]
e|-----------------------------------|
B|---10b~r-8~-10-8~--10b~r-8~--------|
G|----------------------------9~~~\--|
D|-----------------------------------|
A|-----------------------------------|
E|-----------------------------------|

[Verse Riff 2]

e|-------------------------------------------------------------------|
B|-------------------------------------------------------------------|
G|-------------------------------------------------------------------|
D|--7~~~~~~~~~~~~~~~~~~~~~~~~~~~~~~-5~~~~~~~~~~~~~~~~~~~~~~~~~~~~~~--|
A|--5~~~~~~~~~~~~~~~~~~~~~~~~~~~~~~-3~~~~~~~~~~~~~~~~~~~~~~~~~~~~~~--|
E|-------------------------------------------------------------------|

 [Chorus]
                             (Play 4x)
e|-----------------------------------|
B|-----------------------------------|
G|o---------------------------------o|
D|o-----------------9~~---8~~---7~~-o|
A|-----------------------------------|
E|--0---0--0---0--0-----0-----0------|

[Verse Riff 1]

e|-------------------------------------------------------------------|
B|-------------------------------------------------------------------|
G|-------------------------------------------------------------------|
D|-------------------------------------------------------------------|
A|--5~~~~~~~~~~~~~~~~~~~~~~~~~~~~~~-5~~~~~~~~~~~~~~~~~~~~~~~~~~~~~~--|
E|--3~~~~~~~~~~~~~~~~~~~~~~~~~~~~~~-3~~~~~~~~~~~~~~~~~~~~~~~~~~~~~~--|


e|-------------------------------------------------------------------|
B|-------------------------------------------------------------------|
G|-------------------------------------------------------------------|
D|-------------------------------------------------------------------|
A|--5~~~~~~~~~~~~~~~~~~~~~~~~~~~~~~-5~~~~-5~~~~-5~~~~-5~~~~-5~~-5~~--|
E|--3~~~~~~~~~~~~~~~~~~~~~~~~~~~~~~-3~~~~-3~~~~-3~~~~-3~~~~-3~~-3~~--|

 [Fill 1]
e|-----------------------------------|
B|---10b~r-8~-10-8~--10b~r-8~--------|
G|o---------------------------9~~~\-o|
D|o---------------------------------o|
A|-----------------------------------|
E|-----------------------------------|


 [Verse Riff 2]
e|-------------------------------------------------------------------|
B|-------------------------------------------------------------------|
G|-------------------------------------------------------------------|
D|--7~~~~~~~~~~~~~~~~~~~~~~~~~~~~~~-5~~~~~~~~~~~~~~~~~~~~~~~~~~~~~~--|
A|--5~~~~~~~~~~~~~~~~~~~~~~~~~~~~~~-3~~~~~~~~~~~~~~~~~~~~~~~~~~~~~~--|
E|-------------------------------------------------------------------|

 [Fill 1]
e|-----------------------------------|
B|---10b~r-8~-10-8~--10b~r-8~--------|
G|----------------------------9~~~\--|
D|-----------------------------------|
A|-----------------------------------|
E|-----------------------------------|

 [Verse Riff 2]
e|-------------------------------------------------------------------|
B|-------------------------------------------------------------------|
G|-------------------------------------------------------------------|
D|--7~~~~~~~~~~~~~~~~~~~~~~~~~~~~~~-5~~~~~~~~~~~~~~~~~~~~~~~~~~~~~~--|
A|--5~~~~~~~~~~~~~~~~~~~~~~~~~~~~~~-3~~~~~~~~~~~~~~~~~~~~~~~~~~~~~~--|
E|-------------------------------------------------------------------|

 [Chorus]
e|-----------------------------------|
B|-----------------------------------|
G|o---------------------------------o|
D|o-----------------9~~---8~~---7~~-o|
A|-----------------------------------|
E|--0---0--0---0--0-----0-----0------|

                           
e|-----------------------------------|
B|-----------------------------------|
G|o---------------------------------o|
D|o-----------------9~~---8~~---7~~-o|
A|-----------------------------------|
E|--0---0--0---0--0-----0-----0------|(x4)
   ...............     .     .

 [Bridge]
e|-------------------------------------------------------------------|
B|-------------------------------------------------------------------|
G|-------------------------------------------------------------------|
D|--9~~-------------------------7~~-9~~------------------------------|
A|--7~~-------------------------5~~-7~~------------------------------|
E|-------------------------------------------------------------------|


e|-------------------------------------------------------------------|
B|-------------------------------------------------------------------|
G|-------------------------------------------------------------------|
D|----------------------------------9~~-9~~-9~~-9~~-9~~-9~~-9~~-9~~--|
A|----------------------------------7~~-7~~-7~~-7~~-7~~-7~~-7~~-7~~--|
E|-------------------------------------------------------------------|


e|-------------------------------------------------------------------|
B|-------------------------------------------------------------------|
G|-------------------------------------------------------------------|
D|--7~~~~~~~~~~~~~~~~~~~~~~~~~~~~~~~~~~~~~~~~~~~~~~-9~~~~-7~~-5~~~~--|
A|--5~~~~~~~~~~~~~~~~~~~~~~~~~~~~~~~~~~~~~~~~~~~~~~-7~~~~-5~~-3~~~~--|
E|-------------------------------------------------------------------|


e|-------------------------------------------------------------------|
B|-------------------------------------------------------------------|
G|-------------------------------------------------------------------|
D|--4~~~~~~~~~~~~~~~~~~~~~~~~~~~~~~~~~~~~~~~~~~~~~~~~~~~~~~~~~~~~~~--|
A|--2~~~~~~~~~~~~~~~~~~~~~~~~~~~~~~~~~~~~~~~~~~~~~~~~~~~~~~~~~~~~~~--|
E|-------------------------------------------------------------------|

 [Solo Lead]
e|-------------------------------------------------------------------|
B|-------------------------------------------------------------------|
G|-------------------------------------------------------------------|
D|--------------------------------5-7p5---5h7~--7p5--7p5--7p5--7p5---|
A|------5h7p5~-3h5p3----3b4----/7-------7----------7----7----7----7--|
E|--5h8---------------5----------------------------------------------|


e|-------------------------------------------------------------------|
B|--------------------------------------------10---------------------|
G|-------------------------------------7-9b10~~~~~r9-7h9p7---7/13\\--|
D|--7b9--7--5---------5----7-9p7---7h9---------------------9---------|
A|-------------7-5h7----/9-------9-----------------------------------|
E|-------------------------------------------------------------------|


e|-------------------------------------------------------------------|
B|/10-10-10-10-10-10-10-10-10-10-10-10-10-10-10-10-10-10-10-11-11-11-|
G|/11-11-11-11-11-11-11-11-11-11-11-11-11-11-11-11-11-11-11-12-12-12-|
D|-------------------------------------------------------------------|
A|-------------------------------------------------------------------|
E|-------------------------------------------------------------------|


e|-------------------------------------------------------------------|
B|-12-12-12-13-13-13--14-14-x-x---13-15b17-15-13h15p13----13~--------|
G|-13-13-13-14-14-14--15-15-x-x-x----------------------14------------|
D|-------------------------------------------------------------------|
A|-------------------------------------------------------------------|
E|-------------------------------------------------------------------|


e|-------------------------------------------------------------------|
B|-----13-15b17p13------12h13p12-------------------------------------|
G|-14--------------14~-----------14--12h14p12----12-14b16p12----12~--|
D|--------------------------------------------14-------------14------|
A|-------------------------------------------------------------------|
E|-------------------------------------------------------------------|


e|-------------------------|
B|-------------------------|
G|-------------------------|
D|--14--12--10-------------|
A|--------------12--10h12--|
E|-------------------------|

 [Chorus]
                             (Play 4x)
e|-----------------------------------|
B|-----------------------------------|
G|o---------------------------------o|
D|o-----------------9~~---8~~---7~~-o|
A|-----------------------------------|
E|--0---0--0---0--0-----0-----0------|

 [Verse Riff 1]
e|-------------------------------------------------------------------|
B|-------------------------------------------------------------------|
G|-------------------------------------------------------------------|
D|-------------------------------------------------------------------|
A|--5~~~~~~~~~~~~~~~~~~~~~~~~~~~~~~-5~~~~~~~~~~~~~~~~~~~~~~~~~~~~~~--|
E|--3~~~~~~~~~~~~~~~~~~~~~~~~~~~~~~-3~~~~~~~~~~~~~~~~~~~~~~~~~~~~~~--|


e|-------------------------------------------------------------------|
B|-------------------------------------------------------------------|
G|-------------------------------------------------------------------|
D|-------------------------------------------------------------------|
A|--5~~~~~~~~~~~~~~~~~~~~~~~~~~~~~~-5~~~~-5~~~~-5~~~~-5~~~~-5~~-5~~--|
E|--3~~~~~~~~~~~~~~~~~~~~~~~~~~~~~~-3~~~~-3~~~~-3~~~~-3~~~~-3~~-3~~--|

[Fill 1]

e|-----------------------------------|
B|---10b~r-8~-10-8~--10b~r-8~--------|
G|o---------------------------9~~~\-o|
D|o---------------------------------o|
A|-----------------------------------|
E|-----------------------------------|

 [Verse Riff 2]
e|-------------------------------------------------------------------|
B|-------------------------------------------------------------------|
G|-------------------------------------------------------------------|
D|--7~~~~~~~~~~~~~~~~~~~~~~~~~~~~~~-5~~~~~~~~~~~~~~~~~~~~~~~~~~~~~~--|
A|--5~~~~~~~~~~~~~~~~~~~~~~~~~~~~~~-3~~~~~~~~~~~~~~~~~~~~~~~~~~~~~~--|
E|-------------------------------------------------------------------|

 [Fill 1]
e|-----------------------------------|
B|---10b~r-8~-10-8~--10b~r-8~--------|
G|----------------------------9~~~\--|
D|-----------------------------------|
A|-----------------------------------|
E|-----------------------------------|

 [Verse Riff 2]
e|-------------------------------------------------------------------|
B|-------------------------------------------------------------------|
G|-------------------------------------------------------------------|
D|--7~~~~~~~~~~~~~~~~~~~~~~~~~~~~~~-5~~~~~~~~~~~~~~~~~~~~~~~~~~~~~~--|
A|--5~~~~~~~~~~~~~~~~~~~~~~~~~~~~~~-3~~~~~~~~~~~~~~~~~~~~~~~~~~~~~~--|
E|-------------------------------------------------------------------|

 [Chorus]
e|-----------------------------------|
B|-----------------------------------|
G|o---------------------------------o|
D|o-----------------9~~---8~~---7~~-o|
A|-----------------------------------|
E|--0---0--0---0--0-----0-----0------|

                             (Play 4x)
e|-----------------------------------|
B|-----------------------------------|
G|o---------------------------------o|
D|o-----------------9~~---8~~---7~~-o|
A|-----------------------------------|
E|--0---0--0---0--0-----0-----0------|
   ...............     .     .

 [Outro]
e|-------------------------------------------------------------------|
B|-------------------------------------------------------------------|
G|o-----------------------------------------------------------------o|
D|o-7~~~~~~~~~~~~~~~~~~~~~~~~~~~~~~-5~~~~~~~~~~~~~~~~~~~~~~~~~~~~~~-o|
A|--5~~~~~~~~~~~~~~~~~~~~~~~~~~~~~~-3~~~~~~~~~~~~~~~~~~~~~~~~~~~~~~--|
E|-------------------------------------------------------------------|
|
|
e|-12~~~~~~~~~~~~~~~~~~~~~~~~~~~~~-12~~~~~~~~~~~~~~~~~~~~~~~~~~~~~~--|
B|-15^~~~~~~~~~~~~~~~~~~~~~~~~~~~~-15^~~~~~~~~~~~~~~~~~~~~~~~~~~~~~--|
G|o-----------------------------------------------------------------o|
D|o-----------------------------------------------------------------o|
A|-------------------------------------------------------------------|
E|-------------------------------------------------------------------|


e|-----------------------------------|
B|-----------------------------------|
G|o---------------------------------o|
D|o-9~~~~-7~~~~-9~~~\\\-------------o|
A|--7~~~~-5~~~~-7~~~\\\--------------|
E|-----------------------------------|



************************************

| ~  Vibrato
| .  Staccato
| h  Hammer-on
| p  Pull-off
| b  Bend
| /  Slide up
| \  Slide down
| x  Dead note
| r  release

************************************

            
            
Suggest correction
Creating personal tab
Creating personal tab
You can edit any tab online and save it as your Personal.

You can edit, replace or remove any tab part or add personal notes – all changes will be seen only by you.

Personal tabs can be accessed anytime from any device, even offline.
Learn more »
comments
print report bad tab
guest
You may want to rate the tab now too:
select rating
Wanna post a correction for this tab? Suggest correction