Oops, an error
Loading. Please wait.

Ulan solo tab

version 1
version 1

Solo

Whole song

Interactive

by Cueshé
16,768 views 39 this week
81 commentsread comments
1 2 3 4 5
x 17
add to favorites
×
Save as Personal and add changes to this tab that will be seen only by you. Learn more ›
×
You can save this tab as Personal to edit and correct it or add notes. All changes will be seen only by you. Learn more »
launch autoscroll
font size
0
reset
how to read this tab
guitar tuner
edit
Autoscroll
slow
fast
+/-
esc
set tempo
stop
Author
Difficulty
Song: Ulan
Artist: Cueshe
Part: Solo(s)
Date: 02/26/06 (Updated)
Time: 1:49 PM
Tabbed by: Edgar de la Cruz
E-mail: xnohunter@yahoo.com


Sorry kung medyo may sablay sa ibang parte. For any suggestions, 
just e-mail me nalang, or comment para
masmadali.

Hi sa lahat ng friends ko sa St.Jerome, sa mga Maristians, at kung sino-sino
pa. Hi narin kay Ninz, this is for you...

*Tnx sa mga sumusunod for their suggestions na pinang-upd8 ko d2:
-kytewafu 
-linkinmark
-gitarakista

Middle Solo:

Eto yung right after the first chorus, masmadali siya kumpara sa
mismong solo sa dulo, sinama ko na yung chords para masmapadali yung timing


    B                   Eb                      G#m
e|--9s11-11-11-11--9----9s11--11-11-11-11--9-7--16-19-16-19--|
B|-----------------------------------------------------------|
G|-----------------------------------------------------------|
D|-----------------------------------------------------------|
A|-----------------------------------------------------------|
E|-----------------------------------------------------------|

    C#       C#m         (From here, mabilis na po ang banat)
e|--------------11-12-14--12-11-------11---------------------|
B|--14----12-14-----------------14-12----12-14--------12-----|
G|----------------------------------------------11-13--------|
D|-----------------------------------------------------------|
A|-----------------------------------------------------------|
E|-----------------------------------------------------------|

    F#                                               B
e|-----------------------------------------------------------|
B|--5h7t12---4h5t12---2h4t12---0h2t12---2h4t12---5h7t12------|
G|-----------------------------------------------------------|
D|-----------------------------------------------------------|
A|-----------------------------------------------------------|
E|-----------------------------------------------------------|


Solo:

Eto sure na tama na 2, tnx 2 gitarakista sa kapa nya, idol tol!!

    B            F#      G#m         F#m    A
e|------------------------------------------------------6-7--|
B|--------------------------------------------------7-9------|
G|------4---4--6/7b8-7b8-7b8---4---4----------6-8-9----------|
D|--4h6---6------------------6---6---6-4-4--9----------------|
A|-----------------------------------------------------------|
E|-----------------------------------------------------------|

    E               B                   B
e|-------------------------7-6----------------------7h9------|
B|----------7------------------9-7--------------7h9----------|
G|--9-8-6-----9-8-6-7*-------------9-8------4h6--------------|
D|--------9------------6-4--------------4h6------------------|
A|-----------------------------------------------------------|
E|-----------------------------------------------------------|

    F#           G#           F#            G#
e|--9p7---11p7---9p7---11p7---12p7---11p7---9p7---11p7-------|
B|------9------9-----9------9------9------9-----9------------|
G|-----------------------------------------------------------|
D|-----------------------------------------------------------|
A|-----------------------------------------------------------|
E|-----------------------------------------------------------|
    A                E           B
e|--9-7------------------------------------------------------|
B|------9-7----------7*-7------------------------------------|
G|----------9-8-6-8-------9-8-6--4~---------------4----------|
D|-------------------------------4~-----------4h6---6-4------|
A|-------------------------------2~---------------------6----|
E|--------------------------------------------------------7--|

Legend:
h - Hammer
s - slide
p - pull-off
t - Tap
* - Right-thumb harmonics (A.K.A. "paiyakin")


That's it, sana nagustuhan niyo, please rate po! Tnx!

            
            
Suggest correction
Creating personal tab
Creating personal tab
You can edit any tab online and save it as your Personal.

You can edit, replace or remove any tab part or add personal notes – all changes will be seen only by you.

Personal tabs can be accessed anytime from any device, even offline.
Learn more »
comments
print report bad tab
81 comments total. Showing first comments.
0 reply
gitarakista 25 Jan 03, 2006 03:19 AM

kung titingnan mo yung video ng ulan at saka sa myx mo!2005, yung iba nasa below 12th fret tapos pataas ng pataas... ewan ko pero di ko pa to na tatry. comment lang.

0 reply
xnohunter 36 Jan 03, 2006 09:27 PM

oo tma, un rin nakita ko dati nung naglive sila eh, kita ko rin na below 12th fret un, ang layo pa nga nang inaabot eh..medyo sure ako dun sa 16th fret pati narin ata ung 14th, ung 13-12 lang tlaga ang di ako sure..ur talking about the last solo ryt? ewan, i'll try to update this kng sakali, kng ikaw alam mo or kng sino man, paki sbi nlang..tnx ;p

0 reply
gitarakista 25 Jan 03, 2006 11:32 PM

aus. okey naman ung simulang tab nito.

guest
You may want to rate the tab now too:
select rating
Wanna post a correction for this tab? Suggest correction