Oops, an error
Loading. Please wait.
We have an official Fantasy tab made by UG professional guitarists. Check out the tab »
×
2,995 views 3 this week
1 commentread comment
1 2 3 4 5
1 last vote to show rating
add to favorites
×
Save as Personal and add changes to this tab that will be seen only by you. Learn more ›
×
You can save this tab as Personal to edit and correct it or add notes. All changes will be seen only by you. Learn more »
launch autoscroll
font size
0
reset
guitar tuner
backing track
0:00
0:00
edit
Autoscroll
slow
fast
+/-
esc
set tempo
stop
----------------------------------------------------------------------------
			     THE FANTASY - 30 Seconds to Mars
----------------------------------------------------------------------------

Tabbed By : Jerry Vega (vegaboy10)
e-mail: jerrycvega@gmail.com

I tabbed this in response for those who asked for it after seeing my youtube video of 
this song.  This tablature is slightly revised from the video and the note spacing is 
accurate below.  You can watch it at http://www.youtube.com/watch?v=qNJ-JDhhnpU
Enjoy!

Tuning: Drop D (DADG)

INTRO:
G|-------8--------------4--------------3----------------------|
D|-----6--------------2--------------1------------------------|
A|------------------------------------------------------------|
D|-6-6------------2-2------------1-1--------------------------|

G|-------8--------------4-------------------------------------|
D|-----6--------------2---------------------------------------|
A|------------------------------------------------------------|
D|-6-6------------2-2------------1----------------------------|

0:12
G|-----------------------------------------------------------------|
D|-----6-------6-------2-------2-------1-------1-------1-------1---|
A|-----------------------------------------------------------------|
D|-6-6---6---6---6-2-2---2---2---2-1-1---1---1---1---1---1---1---1-|

G|-----------------------------------------------------------------|
D|-----6-------6-------2-------2-------1-------1-------------------|
A|-----------------------------------------------------------------|
D|-6-6---6---6---6-2-2---2---2---2-1-1---1---1---1-----------------|

0:23
G|-----------------------------------------------------------------|
D|-----6-------6-------2-------2-------1-------1-------1-----------|
A|-----------------------------------------------------------------|
D|-6-6---6---6---6-2-2---2---2---2-1-1---1---1---1---1---1---1-2-/-|

G|-----------------------------------------------------------------|
D|-----6-------6-------2-------2-------1-------1-------------------|
A|-----------------------------------------------------------------|
D|-6-6---6---6---6-2-2---2---2---2-1-1---1---1---1---1-2-1---1-1-2-|

G|-----------------------------------------------------------------|
D|-----6-------6-------2-------2-------1-------1-------1-----------|
A|-----------------------------------------------------------------|
D|-6-6---6---6---6-2-2---2---2---2-1-1---1---1---1---1---1---1-2-/-|

G|---------------------------------------------------------------------|
D|---------------------------------------------------------------------|
A|---------------------------------------------------------------------|
D|-6-6-6-6-6-6-6-6-2-2-2-2-2-2-2-2-1-1-/-13-13-13-\-1-1-1-/-13-13-13-\-|

0:44
G|-----------------------------------------------------------------|
D|-----------------------------------------------------------------|
A|-2-2-2-2-2-2-2-2-4-4-4-4-4-4-4-4-6-6-6-6-6-6-6-6-6-6-6-6-6-6-6-6-|
D|-----------------------------------------------------------------|

G|-----------------------------------------------------------------|
D|-----------------------------------------------------------6-----|
A|-2-2-2-2-2-2-2-2-4-4-4-4-4-4-4-4-6-6-6-6-6-6-6-6-6-6-6-4-6---6-4-|
D|-----------------------------------------------------------------|

0:55
G|-----------------------------------------------------------------|
D|-----6-------6-------2-------2-------1-------1-------1-----------|
A|-----------------------------------------------------------------|
D|-6-6---6---6---6-2-2---2---2---2-1-1---1---1---1---1---1---1-2-/-|

G|-----------------------------------------------------------------|
D|-----6-------6-------2-------2-------1-------1-------------------|
A|-----------------------------------------------------------------|
D|-6-6---6---6---6-2-2---2---2---2-1-1---1---1---1-----------------|

1:05
G|-----------------------------------------------------------------|
D|-----6-------6-------2-------2-------1-------1-------------------|
A|-----------------------------------------------------------------|
D|-6-6---6---6---6-2-2---2---2---2-1-1---1---1---1---1-2-1---1-2---|

G|-----------------------------------------------------------------|
D|---------------------2-------2-------1-------1-------------------|
A|-----------------------------------------------------.---.---.---|
D|-6-6-6-6---6-6-6-2-2---2---2---2-1-1---1---1---1-----1---1---1---|

G|-----------------------------------------------------------------|
D|-----6-------6-------2-------2-------1-------1-------1-----------|
A|-----------------------------------------------------------------|
D|-6-6---6---6---6-2-2---2---2---2-1-1---1---1---1---1---1---1-2-/-|

G|---------------------------------------------------------------------|
D|---------------------------------------------------------------------|
A|---------------------------------------------------------------------|
D|-6-6-6-6-6-6-6-6-2-2-2-2-2-2-2-2-1-1-/-13-13-13-\-1-1-1-/-13-13-13-\-|

1:27
G|-----------------------------------------------------------------|
D|-----------------------------------------------------------------|
A|-2-2-2-2-2-2-2-2-4-4-4-4-4-4-4-4-6-6-6-6-6-6-6-6-6-6-6-6-6-6-6-6-|
D|-----------------------------------------------------------------|

G|-------------------------------------------------------------------------|
D|-------------------------------------------------------------------------|
A|-2-2-2-2-2-2-2-2-4-4-4-4-4-4-4-4-6-6-6/13-13-11-13-\-6-6-6/13-11-13-14-\-|
D|-------------------------------------------------------------------------|

1:37
G|----------------------------------------------------------------|
D|----------------------------------------------------------------|
A|-2-----2---2-2---4-----4---4-4-\--------------------------2-----|
D|---------------------------------1-----1---1-1---1--0-1-2---2-1-|

G|---------------------------------------------------------------------|
D|---------------------------------------------------------------------|
A|-2-----2---2-2---4-----4---4-----------------------------------------|
D|-----------------------------1-/-13-13-13-13-13-13-13-13-13-13-13-13-|

G|-------------------------------------------------------------|
D|-------------------------------------------------------------|
A|-------------------------------------------------------------|
D|-13-13-13-13-13-13-13-13-13-13-13-13-13-13-13-13-13-13-13-13-|

1:51
G|:-----------------------------------------------------------------|
D|:-----------------------------------------------------------------|
A|:-----------------------------------------------------------------|
D|:-6---------------2---------------1-------------------------------|

G|-----------------------------------------------------------------:|
D|-----------------------------------------------------------------:|
A|-----------------------------------------------------------------:|
D|-6---------------9---------------1-------------------------------:|x2

G|-----------------------------------------------------------------|
D|-----------------------------------------------------------------|
A|-----------------------------------------------------------------|
D|-6---------------2---------------1-------------------------------|

G|-----------------------------------------------------------------|
D|-----------------------------------------------------------------|
A|-----------------------------------------------------------------|
D|-6---------------9---------------13------------------------------|

REST

2:33
G|------------------------------------------------------------------|
D|-13---------------------------------------------------------------|
A|-13---------------------------------------------------------------|
D|-13---------------------------------------------------------------|

G|--------------------------------------------------------------------|
D|-9------------------------------------------------------------------|
A|-9------------------------------------------------------------------|
D|-9-----------------------------------------------9-----11---11---11-|

G|-------------------------------------------------------------------|
D|-13---------------------------------------------------------13-----|
A|-13---------------------------------------------------------13-----|
D|-13---------------------------------------------------------13-----|

G|------------------------------------------------------------------|
D|-9---------------------------------------------------------11-----|
A|-9---------------------------------------------------------11-----|
D|-9---------------------------------------------------------11-----|

G|------------------------------------------------------------------|
D|-13---------------------------------------------------------------|
A|-13---------------------------------------------------------------|
D|-13---------------------------------------------------------------|

G|--------------------------------------------------------------------|
D|-9------------------------------------------------------------------|
A|-9------------------------------------------------------------------|
D|-9-----------------------------------------------9-----11---11---11-|

G|------------------------------------------------------------------|
D|-13---------------------------------------------------------------|
A|-13---------------------------------------------------------------|
D|-13---------------------------------------------------------------|

G|-4----------------------------------------------------------------|
D|-4----------------------------------------------------------------|
A|-2---------------------------2-/-14-------------------------------|
D|------------------------------------------------------------------|

3:16
G|:---------------------------------:|
D|:-------1-------------------------:|
A|:---------------------------------:|
D|:-0-1-1---1---x-x-x---x-x-x---x-x-:|x7

G|-----------------------------------|
D|-------1-------1-------1-------1---|
A|-----------------------------------|
D|-0-1-1---1---1---1---1---1---1---1-|

3:37
G|-----------------------------------------------------------------|
D|-----------------------------------------------------------------|
A|-2-2-2-2-2-2-2-2-4-4-4-4-4-4-4-4-6-6-6-6-6-6-6-6-6-6-6-6-6-6-6-6-|
D|-----------------------------------------------------------------|

G|-------------------------------------------------------------------------|
D|-------------------------------------------------------------------------|
A|-2-2-2-2-2-2-2-2-4-4-4-4-4-4-4-4-6-6-6/13-13-11-13-\-6-6-6/13-11-13-14-\-|
D|-------------------------------------------------------------------------|

G|-----------------------------------------------------------------|
D|-----------------------------------------------------------6-----|
A|-2-2-2-2-2-2-2-2-4-4-4-4-4-4-4-4-6-6-6-6-6-6-6-6-6-6-6-4-6---6-4-|
D|-----------------------------------------------------------------|

G|----------------------------------------------------------------------|
D|----------------------------------------------------------------------|
A|-2-2-2-2-2-2-2-2-4-----4---4-4---6-----6---6-6---6--/13-13-13-14-13-\-|
D|----------------------------------------------------------------------|

3:59
G|:-----------------------------------------------------------------:|
D|:-----------------------------------------------------------------:|
A|:-2-----2---2-2---4-----4---4-4-----------------------------------:|
D|:---------------------------------1-----1---1-1---1-----1---1-1---:|x3

G|---------------------------------|
D|---------------------------------|
A|-2-----2---2-2---4-----4---4-4---|
D|---------------------------------|

4:17
G|:-----------------:|
D|:-----------------:|
A|:-----------------:|
D|:-8-6-6-8-6-6-8-8-:|x4

4:23
G|---------------------------------------------------------|
D|---------------------------------------------------------|
A|---------------------------------------------------------|
D|-1-1-1-1---1-1-1-1-1-1-1---1-1-1-1-1-1-1---1-1-1-1-1-1-1-|

| /  slide up
| \  slide down
| h  hammer-on
| p  pull-off
| ~  vibrato
| +  harmonic
| x  Mute note
============================================================================

            
            
Suggest correction
Creating personal tab
Creating personal tab
You can edit any tab online and save it as your Personal.

You can edit, replace or remove any tab part or add personal notes – all changes will be seen only by you.

Personal tabs can be accessed anytime from any device, even offline.
Learn more »
Give kudos to tab author, rate the tab!
1 2 3 4 5
comments
print report bad tab
1 comment total.
0 reply
e.susicki 10 Sep 09, 2016 02:51 PM

Very nice tab. I just don't get the timing of the last part.

guest
You may want to rate the tab now too:
select rating
Wanna post a correction for this tab? Suggest correction