Oops, an error
Loading. Please wait.

Oblivion tab

version 3
version 3

Whole song

Interactive

7,202 views 1 this week
1 commentread comment
1 2 3 4 5
x 3
add to favorites
×
Save as Personal and add changes to this tab that will be seen only by you. Learn more ›
×
You can save this tab as Personal to edit and correct it or add notes. All changes will be seen only by you. Learn more »
launch autoscroll
font size
0
reset
how to read this tab
guitar tuner
edit
Autoscroll
slow
fast
+/-
esc
set tempo
stop
Author
-------------------------------------------------------------------------------
                             Oblivion - 30 Seconds To Mars
-------------------------------------------------------------------------------
Tabbed by:matek47
Email:matek47@gmail.com
Tuning:Standard
Effects: Distortion or Overdrive for the whole song, 
Chorus(not necessary)and Delay for the Intro.

This is a tab for this nice and easy-to-play song from this awesome band.:)
I play it like that, but it's as close to the original as I could come.
My first tab here, so don't be hatin':)

Intro: (w/delay or play it to sound like a delay)
E-----8-------8------8-----8--------|
B-----9-------8------8-----8--------|
G----10-------8------8-----8--------|
D-------------8------6-----8--------|
A-----------------------------------|
E-----------------------------------| x2


Verse 1:
E----------------------|
B---2---1------1-------|
G------------3---------|
D-----------------3----|
A----------------------|
E----------------------| x4

Pre-Chorus:
E-----8---8---8--8---8---8--8---8--11---11--11---|
B-----9---9---9--9---9---9--9---9---9----9---9---|
G----10--10--10-10--10--10-10--10--10---10--10---|
D------------------------------------------------|
A------------------------------------------------|
E------------------------------------------------|

E-----8---8---8--8---8---8--8---8--11----11-11---|
B-----8---8---8--8---8---8--8---8--8-----8---8---|
G-----8---8---8--8---8---8--8---8--8-----8---8---|
D-----8---8---8--8---8---8--8---8--8-----8---8---|
A------------------------------------------------|
E------------------------------------------------|

E-----8---8---8--8---8---8--8---8--9-----9---9---|
B-----8---8---8--8---8---8--8---8--8-----8---8---|
G-----8---8---8--8---8---8--8---8--8-----8---8---|
D-----6---6---6--6---6---6--6---6--6-----6---6---|
A------------------------------------------------|
E------------------------------------------------|

E-----8---8---8--8---8---8--8---8----------------|
B-----8---8---8--8---8---8--8---8----------------|
G-----8---8---8--8---8---8--8---8----6\----------|
D-----8---8---8--8---8---8--8---8----6\----------|
A------------------------------------4\----------|
E------------------------------------------------|

Chorus:

E------------------------------------------------|
B------------------------------------------------| 
G------------------------------------------------|
D---------------3------6------8--6--5--6---------|
A-----4-----6---3------6------8--6--5--6---------|
E-----4-----6---1------4------6--4--3--4---------|

E------------------------------------------------|
B------------------------------------------------|
G------------------------------3--3--------------|
D----------------3-----6-------1--3------6-------|
A-------4----6---3-----6----------1---4--4-------|
E-------4----6---1-----4--------------2----------|


Verse 2:
E---4-------3--1--4-------4--1--4--3----1---4----|
B------------------------------------------------|
G------------------------------------------------|
D------------------------------------------------|
A------------------------------------------------|
E------------------------------------------------| x7

Pre-Chorus:
E-----8---8---8--8---8---8--8---8--11---11--11---|
B-----9---9---9--9---9---9--9---9---9----9---9---|
G----10-10-10-10-10-10-10-10-10----10----10--10--|
D------------------------------------------------|
A------------------------------------------------|
E------------------------------------------------|

E-----8---8---8--8---8---8--8---8--11---11--11---|
B-----8---8---8--8---8---8--8---8--8-----8---8---|
G-----8---8---8--8---8---8--8---8--8-----8---8---|
D-----8---8---8--8---8---8--8---8--8-----8---8---|
A------------------------------------------------|
E------------------------------------------------|

E-----8---8---8--8---8---8--8---8--9-----9---9---|
B-----8---8---8--8---8---8--8---8--8-----8---8---|
G-----8---8---8--8---8---8--8---8--8-----8---8---|
D-----6---6---6--6---6---6--6---6--6-----6---6---|
A------------------------------------------------|
E------------------------------------------------|

E-----8---8---8--8---8---8--8---8----------------|
B-----8---8---8--8---8---8--8---8----------------|
G-----8---8---8--8---8---8--8---8----------------|
D-----8---8---8--8---8---8--8---8-----9---7--6---|
A-------------------------------------9---7--6---|
E-------------------------------------7---7--4---|

Chorus:

E------------------------------------------------|
B------------------------------------------------|
G------------------------------------------------|
D-------------3------6------8--6--5--6-----------|
A-----4---6---3------6------8--6--5--6-----------|
E-----4---6---1------4------6--4--3--4-----------|x2

E------------------------------------------------|
B------------------------------------------------|
G------------------------------3-----------------|
D----------------3-----6-------1--3------6-------|
A-------4----6---3-----6----------1---4--4-------|
E-------4----6---1-----4--------------2----------|

Outro (hit as you hear):
  F5     F5
E----------|
B----------|
G----------|
D--3------3|
A--3------3|
E--1------1|


| \  slide down
===============================================================================

            
            
Suggest correction
Creating personal tab
Creating personal tab
You can edit any tab online and save it as your Personal.

You can edit, replace or remove any tab part or add personal notes – all changes will be seen only by you.

Personal tabs can be accessed anytime from any device, even offline.
Learn more »
Give kudos to tab author, rate the tab!
1 2 3 4 5
comments
print report bad tab
1 comment total.
0 reply
bakkburner 10 Feb 15, 2011 10:54 AM

awesome tab dude, only one problem that i wanted to point out though, the tab isn't complete, theres a part in the middle of the song that is a little slower that is completely missing, it should be about,2min and 20 seconds, but other than that epic work for a beginner XD

guest
You may want to rate the tab now too:
select rating
Wanna post a correction for this tab? Suggest correction