Oops, an error
Loading. Please wait.
We have an official Story tab made by UG professional guitarists. Check out the tab »
×
11,896 views 3 this week
7 commentsread comments
1 2 3 4 5
x 9
add to favorites
×
Save as Personal and add changes to this tab that will be seen only by you. Learn more ›
×
You can save this tab as Personal to edit and correct it or add notes. All changes will be seen only by you. Learn more »
launch autoscroll
font size
0
reset
how to read this tab
guitar tuner
edit
Autoscroll
slow
fast
+/-
esc
set tempo
stop
----------------------------------------------------------------------------
                             The Story - 30 Seconds To Mars
----------------------------------------------------------------------------
Tabbed by: HeavenlyDemonic
Email: guitarextroadinaire@yahoo.com

Tuning:Drop D (d A D G B E)
                                                     (x12)
e|------------------------------------------------------|
B|------------------------------------------------------|
G|------------------------------------------------------|
D|-----6-------8-------3-----3--------------------------|
A|-4-4---4-6-6---6-1-1---1-1----------------------------|
d|------------------------------------------------------|
this is 100% correct except he puts an extra note in at the end that i cant figure out

e|-------------------------------------------------------------|
B|-------------------------------------------------------------|
G|--------------------------10-10-10-10-10-10-10-10------------|
D|--11-11-11-11-11-11-11-11-11-11-11-11-11-11-11-11------------|
A|--9--9--9--9--9--9--9--9--9--9--9--9--9--9--9--9-------------|
d|-------------------------------------------------------------|
                                                    (x8)
e|------------------------------------------------------|
B|------------------------------------------------------|
G|------------------------------------------------------|
D|-----6-------8-------3-----3--------------------------|
A|-4-4---4-6-6---6-1-1---1-1----------------------------|
d|------------------------------------------------------|

e|-----------------------------------------------------------------|
B|-----------------------------------------------------------------|
G|-----------------------------------------------------------------|
D|-3-3-3-3-3-3-3-3-0-----------------------------------------------|
A|-1-1-1-1-1-1-1-1-0-----------------------------------------------|
d|-----------------0-----------------------------------------------|
there is more to the bridge than this i just couldnt figure it out so if someone could 
me i would appreciate it...
                                                    (x11)
e|------------------------------------------------------|
B|------------------------------------------------------|
G|------------------------------------------------------|
D|-----6-------8-------3-----3--------------------------|
A|-4-4---4-6-6---6-1-1---1-1----------------------------|
d|------------------------------------------------------|
the solo is played over this. with more time i will post it aswell.
e|-----------------------|
B|-----------------------|
G|-----------------------|
D|-3~---6~---8~----------|
A|-1~---4~---6~----------|
d|-----------------------|
let the chords ring out...

the end... this is an awesome song and its overall 99.9% correct... this is how Jared 
and this is the tuning the song is in...if you have any comments or corrections for the 
please email me..

PLEASE RATE!!!

            
            
Suggest correction
Creating personal tab
Creating personal tab
You can edit any tab online and save it as your Personal.

You can edit, replace or remove any tab part or add personal notes – all changes will be seen only by you.

Personal tabs can be accessed anytime from any device, even offline.
Learn more »
comments
print report bad tab
7 comments total. Showing first comments.
0 reply
jonasleto 10 Jul 28, 2007 02:18 AM

sd

0 reply
jonasleto 10 Jul 28, 2007 02:20 AM

hey, i play this song in drop C thats sounds great,
about that bridge part you figure out, here it its
-----------------|-----------------|-------------------|-----------------|
|-----------------|-----------------|-------------------|-----------------|
|-----------------|-----------------|-------------------|-----------------|
|-----3-------3---|-----6-------6---|-----10-------10---|-----8-------8---|
|-----------------|-----------------|-------------------|-----------------|
|-1-1---1-1-1---1-|-4-4---4-4-4---4-|-8-8----8-8-8----8-|-6-6---6-6-6---0-|

0 reply
zaphodsn 10 Jul 28, 2007 10:14 PM

The note you're looking for in the intro is a D#, first fret thrid string. It's played in the odd repeats of the intro, somewhere at the end, just not exactly sure. See if you can figure it out.

guest
Wanna post a correction for this tab? Suggest correction