Oops, an error
Loading. Please wait.
21,924 views 21 this week
3 commentsread comments
1 2 3 4 5
x 15
add to favorites
×
Save as Personal and add changes to this tab that will be seen only by you. Learn more ›
×
You can save this tab as Personal to edit and correct it or add notes. All changes will be seen only by you. Learn more »
launch autoscroll
font size
0
reset
how to read this tab
guitar tuner
backing track
0:00
0:00
edit
Autoscroll
slow
fast
+/-
esc
set tempo
stop
Author
Difficulty
Band name: 30 Seconds To Mars
Song name: The Kill
Album: A Beautiful Lie [TRACK NO. 3]
Tabbed by: RockyTheWocky
Email Address: RockyTheWocky@gmail.com

This Tab was uploaded to ultimate-guitar.com.
If you have any questions or corrections please feel free to let me know!
RockyTheWocky tabs are done with precision by listening to official guitar instrumentals
carefully.

This is one of my favorite song!!!

SONG INFORMATION:

Key- E minor
Time Signature- 6/8
Tempo- 180 RPM
Scale- E minor (B, C, D, E, F#, G, A, B)

CHANGE LOG:
11/10/10- Updated information. Added [info]. 
05/09/09- Fixed & re-ordered the scale correctly (from F to F#)
11/08/09- General Improvements & Fixed Break Section (v2.3)
10/07/09- Fixed Scale, from A# to B (v2.2.1)
06/07/09- General improvements and updated the verses (v2.2)
03/07/09- Mathematics and general improvements (v2.1)
30/06/09- Initial release (v2.0)


Tuning: 
Guitar 2- Jared Leto: EADGBe
Guitar 1- Tomo Milicevic: EADGBe

--

I. Verse One

Guitar 1
e|------------|------------|------------|------------|
B|------0-----|------0-----|------0-----|------0-----|
G|------------|------------|------------|------------|
D|--5-------5-|--5-------5-|--5-------5-|--5-------5-|
A|3---3-------|3---3-------|3---3-------|3---3-------|
E|------------|------------|------------|------------|
  --------------------let it ring--------------------

e|------------|------------|------------|------------|
B|------0-----|------0-----|------0-----|------0-----|
G|------------|------------|------------|------------|
D|--5-------5-|--5-------5-|--5-------5-|--5-------5-|
A|5---5-------|5---5-------|5---5-------|5---5-------|
E|------------|------------|------------|------------|
  --------------------let it ring--------------------

e|------------|------------|------------|------------|
B|------0-----|------0-----|------0-----|------0-----|
G|------------|------------|------------|------------|
D|--5-------5-|--5-------5-|--5-------5-|--5-------5-|
A|7---7-------|7---7-------|7---7-------|7---7-------|
E|------------|------------|------------|------------|
  --------------------let it ring--------------------

e|------------|------------|------------|------------|
B|------0-----|------0-----|------0-----|------0-----|
G|------------|------------|------------|------------|
D|--5-------5-|--5-------5-|--5-------5-|--5-------5-|
A|2---2-------|2---2-------|2---2-------|2---2-------|
E|------------|------------|------------|------------|
  --------------------let it ring--------------------

And then...

Guitar 1 (Along with bass)
e|------------|------------|------------|------------|
B|------0-----|------0-----|------0-----|------0-----|
G|------------|------------|------------|------------|
D|--5-------5-|--5-------5-|--5-------5-|--5-------5-|
A|3---3-------|3---3-------|3---3-------|3---3-------|
E|------------|------------|------------|------------|
  --------------------let it ring--------------------

e|------------|------------|------------|------------|
B|------0-----|------0-----|------0-----|------0-----|
G|------------|------------|------------|------------|
D|--5-------5-|--5-------5-|--5-------5-|--5-------5-|
A|5---5-------|5---5-------|5---5-------|5---5-------|
E|------------|------------|------------|------------|
  --------------------let it ring--------------------

e|------------|------------|------------|------------|
B|------0-----|------0-----|------0-----|------0-----|
G|------------|------------|------------|------------|
D|--5-------5-|--5-------5-|--5-------5-|--5-------5-|
A|7---7-------|7---7-------|7---7-------|7---7-------|
E|------------|------------|------------|------------|
  --------------------let it ring--------------------

e|------------|------------|------------|------------|
B|------0-----|------0-----|------0-----|------0-----|
G|------------|------------|------------|------------|
D|--5-------5-|--5-------5-|--5-------5-|--5-------5-|
A|2---2-------|2---2-------|2---2-------|2---2-------|
E|------------|------------|------------|------------|
  --------------------let it ring--------------------

--

II. CHORUS One

Guitar One
e|------------|------------|------------|------------|
B|------------|------------|------------|------------|
G|3-5---3---3-|3-3---3---3-|3-3---3---3-|5-5-5-5-5-5-|
D|5-5---5---5-|5-5---5---5-|5-5---5---5-|5-5-5-5-5-5-|
A|3-3---3---3-|3-5---3---3-|3-5---3---3-|3-3-3-3-3-3-|
E|------------|------------|------------|------------|
(followed by)
e|------------|------------|------------|------------|
B|------------|------------|------------|------------|
G|7-7---7---7-|7-7---7---7-|7-7---7---7/|111111111111|
D|7-7---7---7-|7-7---7---7-|7-7---7---7/|x-x-x-x-x-x-|
A|5-5---5---5-|5-5---5---5-|5-5---5---5/|9-9-9-9-9-9-|
E|------------|------------|------------|------------|
(followed by)
e|------------|------------|------------|------------|
B|------------|------------|------------|------------|
G|9-9---9---9-|9-9---9---9-|9-9---9---9-|9-9-9-9-9-9-|
D|9-9---9---9-|9-9---9---9-|9-9---9---9-|9-9-9-9-9-9-|
A|7-7---7---7-|7-7---7---7-|7-7---7---7-|7-7-7-7-7-7-|
E|------------|------------|------------|------------|
(followed by)
e|------------|------------|------------|------------|
B|------------|------------|------------|------------|
G|4-----4-----|4-----4-----|4-4-4-4-4-4-|4-----------|
D|4-----4-----|4-----4-----|x-x-x-x-x-x-|4-----------|
A|2-----2-----|2-----2-----|2-2-2-2-2-2-|2-----------|
E|------------|------------|------------|------------|
  -------------------DONT LET IT RING---------------- 

Guitar two
e|------------|------------|------------|------------|
B|------------|------------|------------|------------|
G|9-9-9-9-9-9-|9-9-9-9-9-9-|9-9-9-9-9-9-|9-9-9-9-9-9-|
D|x-x-x-x-x-x-|x-x-x-x-x-x-|x-x-x-x-x-x-|x-x-x-x-x-x-|
A|7-7-7-7-7-7-|7-7-7-7-7-7-|7-7-7-7-7-7-|7-7-7-7-7-7-|
E|------------|------------|------------|------------|
(followed by)
e|------------|------------|------------|------------|
B|------------|------------|------------|------------|
G|9-9-9-9-9-9-|9-9-9-9-9-9-|9-9-9-9-9-9-|9-9-9-9-9-9-|
D|x-x-x-x-x-x-|x-x-x-x-x-x-|x-x-x-x-x-x-|x-x-x-x-x-x-|
A|7-7-7-7-7-7-|7-7-7-7-7-7-|7-7-7-7-7-7-|7-7-7-7-7-7-|
E|------------|------------|------------|------------|
 (followed by)
e|------------|------------|------------|------------|
B|------------|------------|------------|------------|
G|9-9-9-9-9-9-|9-9-9-9-9-9-|9-9-9-9-9-9-|9-9-9-9-9-9-|
D|x-x-x-x-x-x-|x-x-x-x-x-x-|x-x-x-x-x-x-|x-x-x-x-x-x-|
A|7-7-7-7-7-7-|7-7-7-7-7-7-|7-7-7-7-7-7-|7-7-7-7-7-7-|
E|------------|------------|------------|------------|
 (followed by)
e|------------|------------|------------|------------|
B|------------|------------|------------|------------|
G|9-----9-----|11----11----|4-4-4-4-4-4-|2-----------|
D|x-----x-----|x-----x-----|x-x-x-x-x-x-|x-----------|
A|7-----7-----|9-----9-----|2-4-4-4-4-4-|2-----------|
E|------------|------------|------------|------------|
  -------------------DONT LET IT RING---------------- 

-

III. VERSE Two

Guitar One
e|------------|------------|------------|------------|
B|12p9--------|12p9--------|12p9--------|12p9--------|
G|----9h10--9-|----9h10--9-|----9h10--9-|----9h10--9-|
D|--------10--|--------10--|--------10--|--------10--|
A|------------|------------|------------|------------|
E|------------|------------|------------|------------|
(followed by)
e|------------|------------|------------|------------|
B|------------|------------|------------|------------|
G|------12----|------12----|------12----|------12--12|
D|9h10p9------|9h10p9------|9h10p9------|9h10p9------|
A|------------|------------|------------|------------|
E|------------|------------|------------|------------|
(followed by)
e|------------|------------|------------|------------|
B|12p9--------|12p9--------|12p9--------|12p9--------|
G|----9h10--9-|----9h10--9-|----9h10--9-|----9h10--9-|
D|--------10--|--------10--|--------10--|--------10--|
A|------------|------------|------------|------------|
E|------------|------------|------------|------------|
(followed by)
e|------------|------------|------------|------------|
B|------------|------------|------10----|------12~---|
G|------12----|------12----|------------|------------|
D|9h10p9------|9h10p9------|9h10p9------|9h10p9------|
A|------------|------------|------------|------------|
E|------------|------------|------------|------------|
-- 
And then...

Guitar One (Comes in with Guitar Two)
e|------------|------------|------------|------------|
B|12p9--------|12p9--------|12p9--------|12p9--------|
G|----9h10--9-|----9h10--9-|----9h10--9-|----9h10--9-|
D|--------10--|--------10--|--------10--|--------10--|
A|------------|------------|------------|------------|
E|------------|------------|------------|------------|
(followed by)
e|------------|------------|------------|------------|
B|------------|------------|------------|------------|
G|------12----|------12----|------12----|------12--12|
D|9h10p9------|9h10p9------|9h10p9------|9h10p9------|
A|------------|------------|------------|------------|
E|------------|------------|------------|------------|
(followed by)
e|------------|------------|------------|------------|
B|12p9--------|12p9--------|12p9--------|12p9--------|
G|----9h10--9-|----9h10--9-|----9h10--9-|----9h10--9-|
D|--------10--|--------10--|--------10--|--------10--|
A|------------|------------|------------|------------|
E|------------|------------|------------|------------|
(followed by)
e|------------|------------|------------|------------|
B|------------|------------|------10----|------12~---|
G|------12----|------12----|------------|------------|
D|9h10p9------|9h10p9------|9h10p9------|9h10p9------|
A|------------|------------|------------|------------|
E|------------|------------|------------|------------|

Guitar 2
e|------------|------------|------------|------------|
B|------0-----|------0-----|------0-----|------0-----|
G|------------|------------|------------|------------|
D|--5-------5-|--5-------5-|--5-------5-|--5-------5-|
A|3---3-------|3---3-------|3---3-------|3---3-------|
E|------------|------------|------------|------------|
  --------------------let it ring--------------------

e|------------|------------|------------|------------|
B|------0-----|------0-----|------0-----|------0-----|
G|------------|------------|------------|------------|
D|--5-------5-|--5-------5-|--5-------5-|--5-------5-|
A|5---5-------|5---5-------|5---5-------|5---5-------|
E|------------|------------|------------|------------|
  --------------------let it ring--------------------

e|------------|------------|------------|------------|
B|------0-----|------0-----|------0-----|------0-----|
G|------------|------------|------------|------------|
D|--5-------5-|--5-------5-|--5-------5-|--5-------5-|
A|7---7-------|7---7-------|7---7-------|7---7-------|
E|------------|------------|------------|------------|
  --------------------let it ring--------------------

e|------------|------------|------------|------------|
B|------0-----|------0-----|------0-----|------0-----|
G|------------|------------|------------|------------|
D|--5-------5-|--5-------5-|--5-------5-|--5-------5-|
A|2---2-------|2---2-------|2---2-------|2---2-------|
E|------------|------------|------------|------------|
  --------------------let it ring--------------------
--
IV. CHORUS Two

Guitar One
e|------------|------------|------------|------------|
B|------------|------------|------------|------------|
G|3-5---3---3-|3-3---3---3-|3-3---3---3-|5-5-5-5-5-5-|
D|5-5---5---5-|5-5---5---5-|5-5---5---5-|5-5-5-5-5-5-|
A|3-3---3---3-|3-5---3---3-|3-5---3---3-|3-3-3-3-3-3-|
E|------------|------------|------------|------------|
(followed by)
e|------------|------------|------------|------------|
B|------------|------------|------------|------------|
G|7-7---7---7-|7-7---7---7-|7-7---7---7/|111111111111|
D|7-7---7---7-|7-7---7---7-|7-7---7---7/|x-x-x-x-x-x-|
A|5-5---5---5-|5-5---5---5-|5-5---5---5/|9-9-9-9-9-9-|
E|------------|------------|------------|------------|
(followed by)
e|------------|------------|------------|------------|
B|------------|------------|------------|------------|
G|9-9---9---9-|9-9---9---9-|9-9---9---9-|9-9-9-9-9-9-|
D|9-9---9---9-|9-9---9---9-|9-9---9---9-|9-9-9-9-9-9-|
A|7-7---7---7-|7-7---7---7-|7-7---7---7-|7-7-7-7-7-7-|
E|------------|------------|------------|------------|
(followed by)
e|------------|------------|------------|------------|
B|------------|------------|------------|------------|
G|4-4---4---4-|5-5---5---5-|7-7---7---7-|141414141414|
D|x-x---x---x-|x-x---x---x-|x-x---x---x-|x-x-x-x-x-x-|
A|2-2---2---2-|3-3---3---3-|5-5---5---5-|121212121212|
E|------------|------------|------------|------------|

Guitar two
e|------------|------------|------------|------------|
B|------------|------------|------------|------------|
G|9-9-9-9-9-9-|9-9-9-9-9-9-|9-9-9-9-9-9-|9-9-9-9-9-9-|
D|x-x-x-x-x-x-|x-x-x-x-x-x-|x-x-x-x-x-x-|x-x-x-x-x-x-|
A|7-7-7-7-7-7-|7-7-7-7-7-7-|7-7-7-7-7-7-|7-7-7-7-7-7-|
E|------------|------------|------------|------------|
(followed by)
e|------------|------------|------------|------------|
B|------------|------------|------------|------------|
G|9-9-9-9-9-9-|9-9-9-9-9-9-|9-9-9-9-9-9-|9-9-9-9-9-9-|
D|x-x-x-x-x-x-|x-x-x-x-x-x-|x-x-x-x-x-x-|x-x-x-x-x-x-|
A|7-7-7-7-7-7-|7-7-7-7-7-7-|7-7-7-7-7-7-|7-7-7-7-7-7-|
E|------------|------------|------------|------------|
 (followed by)
e|------------|------------|------------|------------|
B|------------|------------|------------|------------|
G|9-9-9-9-9-9-|9-9-9-9-9-9-|9-9-9-9-9-9-|9-9-9-9-9-9-|
D|x-x-x-x-x-x-|x-x-x-x-x-x-|x-x-x-x-x-x-|x-x-x-x-x-x-|
A|7-7-7-7-7-7-|7-7-7-7-7-7-|7-7-7-7-7-7-|7-7-7-7-7-7-|
E|------------|------------|------------|------------|
 (followed by)
e|------------|------------|------------|------------|
B|------------|------------|------------|------------|
G|9-9-9-9-9-9-|9-9-9-9-9-9/|111111111111|111111111111|
D|x-x-x-x-x-x-|x-x-x-x-x-x/|x-x-x-x-x-x-|x-x-x-x-x-x-|
A|7-7-7-7-7-7-|7-7-7-7-7-7/|9-9-9-9-9-9-|9-9-9-9-9-9-|
E|------------|------------|------------|------------|
  -------------------DONT LET IT RING---------------- 
--
And then...

Guitar One
e|------------|------------|------------|------------|
B|------------|------------|------------|------------|
G|3-5---3---3-|3-3---3---3-|3-3---3---3-|5-5-5-5-5-5-|
D|5-5---5---5-|5-5---5---5-|5-5---5---5-|5-5-5-5-5-5-|
A|3-3---3---3-|3-5---3---3-|3-5---3---3-|3-3-3-3-3-3-|
E|------------|------------|------------|------------|
(followed by)
e|------------|------------|------------|------------|
B|------------|------------|------------|------------|
G|7-7---7---7-|7-7---7---7-|7-7---7---7/|111111111111|
D|7-7---7---7-|7-7---7---7-|7-7---7---7/|x-x-x-x-x-x-|
A|5-5---5---5-|5-5---5---5-|5-5---5---5/|9-9-9-9-9-9-|
E|------------|------------|------------|------------|
(followed by)
e|------------|------------|------------|------------|
B|------------|------------|------------|------------|
G|9-9---9---9-|9-9---9---9-|9-9---9---9-|111111111111|
D|9-9---9---9-|9-9---9---9-|9-9---9---9-|x-x-x-x-x-x-|
A|7-7---7---7-|7-7---7---7-|7-7---7---7-|9-9-9-9-9-9/|
E|------------|------------|------------|------------|
(followed by)
e|------------|------------|------------|------------|
B|------------|------------|------------|------------|
G|141414141414|141414141414|141414141414|141414141414|
D|x-x-x-x-x-x-|x-x-x-x-x-x-|x-x-x-x-x-x-|x-x-x-x-x-x-|
A|121212121212|121212121212|121212121212|121212121212|
E|------------|------------|------------|------------|

Guitar 2
e|------------|------------|------------|------------|
B|8-8-8-8-8-8-|8-8-8-8-8-8-|8-8-8-8-8-8-|8-8-8-8-8-8/|
G|x-x-x-x-x-x-|x-x-x-x-x-x-|x-x-x-x-x-x-|x-x-x-x-x-x/|
D|5-5-5-5-5-5-|5-5-5-5-5-5-|5-5-5-5-5-5-|5-5-5-5-5-5/|
A|------------|------------|------------|------------|
E|------------|------------|------------|------------|
(followed by)
e|------------|------------|------------|------------|
B|101010101010|101010101010|101010101010|101010101010|
G|x-x-x-x-x-x-|x-x-x-x-x-x-|x-x-x-x-x-x-|x-x-x-x-x-x/|
D|7-7-7-7-7-7-|7-7-7-7-7-7-|7-7-7-7-7-7-|7-7-7-7-7-7/|
A|------------|------------|------------|------------|
E|------------|------------|------------|------------|
(followed by)
e|------------|------------|------------|------------|
B|121212121212|121212121212|121212121212|121212121212|
G|x-x-x-x-x-x-|x-x-x-x-x-x-|x-x-x-x-x-x-|x-x-x-x-x-x-|
D|9-9-9-9-9-9-|9-9-9-9-9-9-|9-9-9-9-9-9-|9-9-9-9-9-9-|
A|------------|------------|------------|------------|
E|------------|------------|------------|------------|
(followed by)
e|------------|------------|------------|------------|
B|121212121212|121212121212|121212121212|121212121212|
G|x-x-x-x-x-x-|x-x-x-x-x-x-|x-x-x-x-x-x-|x-x-x-x-x-x-|
D|9-9-9-9-9-9-|9-9-9-9-9-9-|9-9-9-9-9-9-|9-9-9-9-9-9~|
A|------------|------------|------------|------------|
E|------------|------------|------------|------------|
--

V. BRIDGE (Note: The bridge is correct. Listen to the guitar instrumental)

Guitar One
e|------0---0-|------0---0-|------0---0-|------0---0-|
B|0-----------|0-----------|0-----------|0-----------|
G|7-----------|7-----------|4-----------|4-----------|
D|------------|------------|------------|------------|
A|------------|------------|------------|------------|
E|------------|------------|------------|------------|
(followed by)
e|------------|--------7---|------------|--------7---|
B|5---8---5---|7---5-------|5---8---5---|7---5-------|
G|------------|------------|------------|------------|
D|------------|------------|------------|------------|
A|------------|------------|------------|------------|
E|------------|------------|------------|------------|
(followed by)
e|------0---0-|------0---0-|------0---0-|------0---0-|
B|0-----------|0-----------|0-----------|0-----------|
G|7-----------|7-----------|12----------|11----------|
D|------------|------------|------------|------------|
A|------------|------------|------------|------------|
E|------------|------------|------------|------------|
(followed by)
e|------------|--------7---|------------|7-----------|
B|5---8---5---|7---5-------|5---8---5---|----7---5---|
G|------------|------------|------------|------------|
D|------------|------------|------------|------------|
A|------------|------------|------------|------------|
E|------------|------------|------------|------------|
(followed by)
e|------0---0-|------0---0-|------0---0-|------0---0-|
B|0-----------|0-----------|0-----------|0-----------|
G|7-----------|7-----------|4-----------|4-----------|
D|------------|------------|------------|------------|
A|------------|------------|------------|------------|
E|------------|------------|------------|------------|
(followed by)
e|------0---0-|------0---0-|------0---0-|------0---0-|
B|0-----------|0-----------|0-----------|0-----------|
G|9-----------|9-----------|9-----------|9-----------|
D|------------|------------|------------|------------|
A|------------|------------|------------|------------|
E|------------|------------|------------|------------|
(followed by)
e|------0---0-|------0---0-|------0---0-|------0---0-|
B|0-----------|0-----------|0-----------|0-----------|
G|7-----------|7-----------|12----------|14----------|
D|------------|------------|------------|------------|
A|------------|------------|------------|------------|
E|------------|------------|------------|------------|
(followed by)
e|------------|------------|------------|------------|
B|------------|------------|------------|------------|
G|9-9-9-9~9~9~|9-9-9-9~9~9~|9-9-9-9~9~9~|9---9---9\--|
D|9-9-9-9~9~9~|9-9-9-9~9~9~|9-9-9-9~9~9~|9---9---9\--|
A|7-7-7-7~7~7~|7-7-7-7~7~7~|7-7-7-7~7~7~|7---7---7\--|
E|------------|------------|------------|------------|

Guitar 2
e|------------|------------|------------|------------|
B|------------|------------|------------|------------|
G|2-2-2-2-2-2-|2-2-2-2-2-2-|4-4-4-4-4-4-|4-4-4-4-4-4-|
D|2-2-2-2-2-2-|2-2-2-2-2-2-|4-4-4-4-4-4-|4-4-4-4-4-4-|
A|0-0-0-0-0-0-|0-0-0-0-0-0-|2-2-2-2-2-2-|2-2-2-2-2-2-|
E|------------|------------|------------|------------|
(followed by)
e|------------|------------|------------|------------|
B|------------|------------|------------|------------|
G|9-9-9-9-9-9-|9-9-9-9-9-9-|9-9-9-9-9-9-|9-9-9-9-9-9-|
D|9-9-9-9-9-9-|9-9-9-9-9-9-|9-9-9-9-9-9-|9-9-9-9-9-9-|
A|7-7-7-7-7-7-|7-7-7-7-7-7-|7-7-7-7-7-7-|7-7-7-7-7-7-|
E|------------|------------|------------|------------|
(followed by)
e|------------|------------|------------|------------|
B|------------|------------|------------|------------|
G|5-5-5-5-5-5-|5-5-5-5-5-5-|7-7-7-7-7-7-|7-7-7-7-7-7-|
D|5-5-5-5-5-5-|5-5-5-5-5-5-|7-7-7-7-7-7-|7-7-7-7-7-7-|
A|3-3-3-3-3-3-|3-3-3-3-3-3-|5-5-5-5-5-5-|5-5-5-5-5-5-|
E|------------|------------|------------|------------|
(followed by)
e|------------|------------|------------|------------|
B|------------|------------|------------|------------|
G|9-9-x-x-x-x-|1111x-x-x-x-|1212x-x-x-x-|1414x-x-x-x-|
D|9-9-x-x-x-x-|1111x-x-x-x-|1212x-x-x-x-|1414x-x-x-x-|
A|7-7-x-x-x-x-|9-9-x-x-x-x-|1010x-x-x-x-|1212x-x-x-x-|
E|------------|------------|------------|------------|
(followed by)
e|------------|------------|------------|------------|
B|------------|------------|------------|------------|
G|5-5-5-5-5-5-|5-5-5-5-5-5-|7-7-7-7-7-7-|7-7-7-7-7-7-|
D|5-5-5-5-5-5-|5-5-5-5-5-5-|7-7-7-7-7-7-|7-7-7-7-7-7-|
A|3-3-3-3-3-3-|3-3-3-3-3-3-|5-5-5-5-5-5-|5-5-5-5-5-5-|
E|------------|------------|------------|------------|
(followed by)
e|------------|------------|------------|------------|
B|------------|------------|------------|------------|
G|9-9-9-9-9-9-|9-9-9-9-9-9-|9-9-9-9-9-9-|9-9-9-9-9-9-|
D|9-9-9-9-9-9-|9-9-9-9-9-9-|9-9-9-9-9-9-|9-9-9-9-9-9-|
A|7-7-7-7-7-7-|7-7-7-7-7-7-|7-7-7-7-7-7-|7-7-7-7-7-7-|
E|------------|------------|------------|------------|
(followed by)
e|------------|------------|------------|------------|
B|------------|------------|------------|------------|
G|5-5-5-5-5-5-|5-5-5-5-5-5-|7-7-7-7-7-7-|7-7-7-7-7-7-|
D|5-5-5-5-5-5-|5-5-5-5-5-5-|7-7-7-7-7-7-|7-7-7-7-7-7-|
A|3-3-3-3-3-3-|3-3-3-3-3-3-|5-5-5-5-5-5-|5-5-5-5-5-5-|
E|------------|------------|------------|------------|
(followed by)
e|------------|------------|------------|------------|
B|------------|------------|------------|------------|
G|9-9-9-9~9~9~|9-9-9-9~9~9~|9-9-9-9~9~9~|9---9---9\--|
D|9-9-9-9~9~9~|9-9-9-9~9~9~|9-9-9-9~9~9~|9---9---9\--|
A|7-7-7-7~7~7~|7-7-7-7~7~7~|7-7-7-7~7~7~|7---7---7\--|
E|------------|------------|------------|------------|

--

VI. BREAK

Guitar One (Odd tremolo effect)

e|------------|------------|------------|------------|
B|------------|------------|------------|------------|
G|------------|------------|------------|------------|
D|------------|------------|------------|------------|
A|7-7-7-7-7-7-|7-7-7-7-7-7-|7-7-7-7-7-7-|------------|
E|------------|------------|------------|------------|
  ------------------MULTIPLY BY 4x-------------------

Guitar 2
e|------------|------------|------------|------------|
B|------------|------------|------------|------------|
G|------------|------------|------------|555555555555|
D|------------|------------|------------|xxxxxxxxxxxx|
A|------------|------------|------------|333333333333|
E|------------|------------|------------|------------|
  ------------------MULTIPLY BY 4x-------------------
And then...

Guitar 1
e|------------|------------|------------|------------|
B|------------|------------|------------|------------|
G|161616161616|161616161616|141414141414|12121212----|
D|x-x-x-x-x-x-|x-x-x-x-x-x-|x-x-x-x-x-x-|x-x-x-x-----|
A|141414141414|141414141414|121212121212|10101010----|
E|------------|------------|------------|------------|

Guitar 2
e|------------|------------|------------|------------|
B|------------|------------|------------|------------|
G|161616161616|161616161616|141414141414|12121212----|
D|x-x-x-x-x-x-|x-x-x-x-x-x-|x-x-x-x-x-x-|x-x-x-x-----|
A|141414141414|141414141414|121212121212|10101010----|
E|------------|------------|------------|------------|
And then...

Guitar One
e|------------|------------|------------|------------|
B|------------|------------|------------|15----------|
G|16----14----|16----14----|16----14----|------14----|
D|------------|------------|------------|------------|
A|------------|------------|------------|------------|
E|------------|------------|------------|------------|

--

VII. CHORUS Three

Round 1

Guitar One
e|------------|------------|------------|------------|
B|------------|------------|------------|------------|
G|3-5---3---3-|3-3---3---3-|3-3---3---3-|5-5-5-5-5-5-|
D|5-5---5---5-|5-5---5---5-|5-5---5---5-|5-5-5-5-5-5-|
A|3-3---3---3-|3-5---3---3-|3-5---3---3-|3-3-3-3-3-3-|
E|------------|------------|------------|------------|
(followed by)
e|------------|------------|------------|------------|
B|------------|------------|------------|------------|
G|7-7---7---7-|7-7---7---7-|7-7---7---7/|111111111111|
D|7-7---7---7-|7-7---7---7-|7-7---7---7/|x-x-x-x-x-x-|
A|5-5---5---5-|5-5---5---5-|5-5---5---5/|9-9-9-9-9-9-|
E|------------|------------|------------|------------|
(followed by)
e|------------|------------|------------|------------|
B|------------|------------|------------|------------|
G|9-9---9---9-|9-9---9---9-|9-9---9---9-|9-9-9-9-9-9-|
D|9-9---9---9-|9-9---9---9-|9-9---9---9-|9-9-9-9-9-9-|
A|7-7---7---7-|7-7---7---7-|7-7---7---7-|7-7-7-7-7-7-|
E|------------|------------|------------|------------|
(followed by)
e|------------|------------|------------|------------|
B|------------|------------|------------|------------|
G|4-4---4---4-|5-5---5---5-|7-7---7---7-|141414141414|
D|x-x---x---x-|x-x---x---x-|x-x---x---x-|x-x-x-x-x-x-|
A|2-2---2---2-|3-3---3---3-|5-5---5---5-|121212121212|
E|------------|------------|------------|------------|

Guitar two
e|------------|------------|------------|------------|
B|------------|------------|------------|------------|
G|9-9-9-9-9-9-|9-9-9-9-9-9-|9-9-9-9-9-9-|9-9-9-9-9-9-|
D|x-x-x-x-x-x-|x-x-x-x-x-x-|x-x-x-x-x-x-|x-x-x-x-x-x-|
A|7-7-7-7-7-7-|7-7-7-7-7-7-|7-7-7-7-7-7-|7-7-7-7-7-7-|
E|------------|------------|------------|------------|
(followed by)
e|------------|------------|------------|------------|
B|------------|------------|------------|------------|
G|9-9-9-9-9-9-|9-9-9-9-9-9-|9-9-9-9-9-9-|9-9-9-9-9-9-|
D|x-x-x-x-x-x-|x-x-x-x-x-x-|x-x-x-x-x-x-|x-x-x-x-x-x-|
A|7-7-7-7-7-7-|7-7-7-7-7-7-|7-7-7-7-7-7-|7-7-7-7-7-7-|
E|------------|------------|------------|------------|
 (followed by)
e|------------|------------|------------|------------|
B|------------|------------|------------|------------|
G|9-9-9-9-9-9-|9-9-9-9-9-9-|9-9-9-9-9-9-|9-9-9-9-9-9-|
D|x-x-x-x-x-x-|x-x-x-x-x-x-|x-x-x-x-x-x-|x-x-x-x-x-x-|
A|7-7-7-7-7-7-|7-7-7-7-7-7-|7-7-7-7-7-7-|7-7-7-7-7-7-|
E|------------|------------|------------|------------|
 (followed by)
e|------------|------------|------------|------------|
B|------------|------------|------------|------------|
G|9-9-9-9-9-9-|9-9-9-9-9-9/|111111111111|111111111111|
D|x-x-x-x-x-x-|x-x-x-x-x-x/|x-x-x-x-x-x-|x-x-x-x-x-x-|
A|7-7-7-7-7-7-|7-7-7-7-7-7/|9-9-9-9-9-9-|9-9-9-9-9-9-|
E|------------|------------|------------|------------|
  -------------------DONT LET IT RING---------------- 

Round 2

Guitar One
e|------------|------------|------------|------------|
B|------------|------------|------------|------------|
G|3-5---3---3-|3-3---3---3-|3-3---3---3-|5-5-5-5-5-5-|
D|5-5---5---5-|5-5---5---5-|5-5---5---5-|5-5-5-5-5-5-|
A|3-3---3---3-|3-5---3---3-|3-5---3---3-|3-3-3-3-3-3-|
E|------------|------------|------------|------------|
(followed by)
e|------------|------------|------------|------------|
B|------------|------------|------------|------------|
G|7-7---7---7-|7-7---7---7-|7-7---7---7/|111111111111|
D|7-7---7---7-|7-7---7---7-|7-7---7---7/|x-x-x-x-x-x-|
A|5-5---5---5-|5-5---5---5-|5-5---5---5/|9-9-9-9-9-9-|
E|------------|------------|------------|------------|
(followed by)
e|------------|------------|------------|------------|
B|------------|------------|------------|------------|
G|9-9---9---9-|9-9---9---9-|9-9---9---9-|111111111111|
D|9-9---9---9-|9-9---9---9-|9-9---9---9-|x-x-x-x-x-x-|
A|7-7---7---7-|7-7---7---7-|7-7---7---7-|9-9-9-9-9-9/|
E|------------|------------|------------|------------|
(followed by)
e|------------|------------|------------|------------|
B|------------|------------|------------|------------|
G|141414141414|141414141414|141414141414|141414141414|
D|x-x-x-x-x-x-|x-x-x-x-x-x-|x-x-x-x-x-x-|x-x-x-x-x-x-|
A|121212121212|121212121212|121212121212|121212121212|
E|------------|------------|------------|------------|

Guitar 2
e|------------|------------|------------|------------|
B|8-8-8-8-8-8-|8-8-8-8-8-8-|8-8-8-8-8-8-|8-8-8-8-8-8/|
G|x-x-x-x-x-x-|x-x-x-x-x-x-|x-x-x-x-x-x-|x-x-x-x-x-x/|
D|5-5-5-5-5-5-|5-5-5-5-5-5-|5-5-5-5-5-5-|5-5-5-5-5-5/|
A|------------|------------|------------|------------|
E|------------|------------|------------|------------|
(followed by)
e|------------|------------|------------|------------|
B|101010101010|101010101010|101010101010|101010101010|
G|x-x-x-x-x-x-|x-x-x-x-x-x-|x-x-x-x-x-x-|x-x-x-x-x-x/|
D|7-7-7-7-7-7-|7-7-7-7-7-7-|7-7-7-7-7-7-|7-7-7-7-7-7/|
A|------------|------------|------------|------------|
E|------------|------------|------------|------------|
(followed by)
e|------------|------------|------------|------------|
B|121212121212|121212121212|121212121212|121212121212|
G|x-x-x-x-x-x-|x-x-x-x-x-x-|x-x-x-x-x-x-|x-x-x-x-x-x-|
D|9-9-9-9-9-9-|9-9-9-9-9-9-|9-9-9-9-9-9-|9-9-9-9-9-9-|
A|------------|------------|------------|------------|
E|------------|------------|------------|------------|
(followed by)
e|------------|------------|------------|------------|
B|121212121212|121212121212|121212121212|121212121212|
G|x-x-x-x-x-x-|x-x-x-x-x-x-|x-x-x-x-x-x-|x-x-x-x-x-x-|
D|9-9-9-9-9-9-|9-9-9-9-9-9-|9-9-9-9-9-9-|9-9-9-9-9-9~|
A|------------|------------|------------|------------|
E|------------|------------|------------|------------|

Round 3

Guitar 1
e|------------|------------|------------|------------|
B|------------|------------|------------|------------|
G|5-5-5-5-5-5-|5-5-5-5-5-5-|5-5-5-5-5-5-|5-5-5-5-5-5-|
D|x-x-x-x-x-x-|x-x-x-x-x-x-|x-x-x-x-x-x-|x-x-x-x-x-x-|
A|3-3-3-3-5-3-|3-3-3-3-3-3-|3-3-3-3-3-3-|3-3-3-3-3-3-|
E|------------|------------|------------|------------|
(followed by)
e|------------|------------|------------|------------|
B|------------|------------|------------|------------|
G|7-7-7-7-7-7-|7-7-7-7-7-7-|7-7-7-7-7-7-|7-7-7-7-7-7-|
D|x-x-x-x-x-x-|x-x-x-x-x-x-|x-x-x-x-x-x-|x-x-x-x-x-x-|
A|5-5-5-5-5-5-|5-5-5-5-5-5-|5-5-5-5-5-5-|5-5-5-5-5-5-|
E|------------|------------|------------|------------|
(followed by)
e|------------|------------|------------|------------|
B|------------|------------|------------|------------|
G|5-5-5-5-5-5-|5-5-5-5-5-5-|7-7-7-7-7-7-|5-5-5-5-5-5-|
D|x-x-x-x-x-x-|x-x-x-x-x-x-|x-x-x-x-x-x-|x-x-x-x-x-x-|
A|3-3-3-3-5-3-|3-3-3-3-3-3-|5-5-5-5-5-5-|5-5-5-5-5-5-|
E|------------|------------|------------|------------|
(followed by)
e|------------|------------|------------|------------|
B|------------|------------|------------|------------|
G|141414141414|141414141414|141414141414|141414141414|
D|x-x-x-x-x-x-|x-x-x-x-x-x-|x-x-x-x-x-x-|x-x-x-x-x-x-|
A|121212121212|121212121212|121212121212|121212121212|
E|------------|------------|------------|------------|

Guitar 2
e|------------|------------|------------|------------|
B|8-8-8-8-8-8-|8-8-8-8-8-8-|8-8-8-8-8-8-|8-8-8-8-8-8/|
G|x-x-x-x-x-x-|x-x-x-x-x-x-|x-x-x-x-x-x-|x-x-x-x-x-x/|
D|5-5-5-5-5-5-|5-5-5-5-5-5-|5-5-5-5-5-5-|5-5-5-5-5-5/|
A|------------|------------|------------|------------|
E|------------|------------|------------|------------|
(followed by)
e|------------|------------|------------|------------|
B|101010101010|101010101010|101010101010|101010101010|
G|x-x-x-x-x-x-|x-x-x-x-x-x-|x-x-x-x-x-x-|x-x-x-x-x-x/|
D|7-7-7-7-7-7-|7-7-7-7-7-7-|7-7-7-7-7-7-|7-7-7-7-7-7/|
A|------------|------------|------------|------------|
E|------------|------------|------------|------------|
(followed by)
e|------------|------------|------------|------------|
B|121212121212|121212121212|121212121212|121212121212|
G|x-x-x-x-x-x-|x-x-x-x-x-x-|x-x-x-x-x-x-|x-x-x-x-x-x-|
D|9-9-9-9-9-9-|9-9-9-9-9-9-|9-9-9-9-9-9-|9-9-9-9-9-9-|
A|------------|------------|------------|------------|
E|------------|------------|------------|------------|
(followed by)
e|------------|------------|------------|------------|
B|121212121212|121212121212|121212121212|121212121212|
G|x-x-x-x-x-x-|x-x-x-x-x-x-|x-x-x-x-x-x-|x-x-x-x-x-x-|
D|9-9-9-9-9-9-|9-9-9-9-9-9-|9-9-9-9-9-9-|99999999999~|
A|------------|------------|------------|------------|
E|------------|------------|------------|------------|

OUTRO

Guitar One
e|------------|------------|------------|------------|
B|12p9--------|12p9--------|12p9--------|12p9--------|
G|----9h10--9-|----9h10--9-|----9h10--9-|----9h10--9-|
D|--------10--|--------10--|--------10--|--------10--|
A|------------|------------|------------|------------|
E|------------|------------|------------|------------|
(followed by)
e|------------|------------|------------|------------|
B|------------|------------|------------|------------|
G|------12----|------12----|------12----|------12--12|
D|9h10p9------|9h10p9------|9h10p9------|9h10p9------|
A|------------|------------|------------|------------|
E|------------|------------|------------|------------|
(followed by)
e|------------|------------|------------|------------|
B|12p9--------|12p9--------|12p9--------|12p9--------|
G|----9h10--9-|----9h10--9-|----9h10--9-|----9h10--9-|
D|--------10--|--------10--|--------10--|--------10--|
A|------------|------------|------------|------------|
E|------------|------------|------------|------------|
(followed by)
e|------------|------------|------------|------------|
B|------------|------------|------10----|------12~---|
G|------12----|------12----|------------|------------|
D|9h10p9------|9h10p9------|9h10p9------|9h10p9------|
A|------------|------------|------------|------------|
E|------------|------------|------------|------------|

Guitar Two
e|------------|------------|------------|------------|
B|------0-----|------0-----|------0-----|------0-----|
G|------------|------------|------------|------------|
D|--5-------5-|--5-------5-|--5-------5-|--5-------5-|
A|3---3-------|3---3-------|3---3-------|3---3-------|
E|------------|------------|------------|------------|
  --------------------let it ring--------------------

e|------------|------------|------------|------------|
B|------0-----|------0-----|------0-----|------0-----|
G|------------|------------|------------|------------|
D|--5-------5-|--5-------5-|--5-------5-|--5-------5-|
A|5---5-------|5---5-------|5---5-------|5---5-------|
E|------------|------------|------------|------------|
  --------------------let it ring--------------------

e|------------|------------|------------|------------|
B|------0-----|------0-----|------0-----|------0-----|
G|------------|------------|------------|------------|
D|--5-------5-|--5-------5-|--5-------5-|--5-------5-|
A|7---7-------|7---7-------|7---7-------|7---7-------|
E|------------|------------|------------|------------|
  --------------------let it ring--------------------

e|------------|------------|------------|------------|
B|------0-----|------0-----|------0-----|------0-----|
G|------------|------------|------------|------------|
D|--5-------5-|--5-------5-|--5-------5-|--5-------5-|
A|2---2-------|2---2-------|2---2-------|2---2-------|
E|------------|------------|------------|------------|
  --------------------let it ring--------------------


|^   bend
|PM  palm mute
| /  slide up
| \  slide down
| h  hammer-on
| p  pull-off
| ~  vibrato
| +  harmonic
| x  Mute note
===============================================================================

            
            
Suggest correction
Creating personal tab
Creating personal tab
You can edit any tab online and save it as your Personal.

You can edit, replace or remove any tab part or add personal notes – all changes will be seen only by you.

Personal tabs can be accessed anytime from any device, even offline.
Learn more »
comments
print report bad tab
3 comments total.
0 reply
heom 41 Jul 06, 2011 04:17 AM

I am still the tabs that show what I hear in the song. These tabs are here on the closest yet. But I hear:

Guitar 1
e|------------|------------|------------|------------|
B|------0-----|------0-----|------0-----|------0-----|
G|------------|------------|------------|------------|
D|5-5-5-----5-|5-5-5-----5-|5-5-5-----5-|5-5-5-----5-|
A|------------|------------|------------|------------|
E|------------|------------|------------|------------|
--------------------let it ring--------------------

e|------------|------------|------------|------------|
B|------0-----|------0-----|------0-----|------0-----|
G|------------|------------|------------|------------|
D|--5-------5-|--5-------5-|--5-------5-|--5-------5-|
A|5---5-------|5---5-------|5---5-------|5---5-------|
E|------------|------------|------------|------------|
--------------------let it ring--------------------

e|------------|------------|------------|------------|
B|------0-----|------0-----|------0-----|------0-----|
G|------------|------------|------------|------------|
D|--5-------5-|--5-------5-|--5-------5-|--5-------5-|
A|7---7-------|7---7-------|7---7-------|7---7-------|
E|------------|------------|------------|------------|
--------------------let it ring--------------------

e|------------|------------|------------|------------|
B|------0-----|------0-----|------0-----|------0-----|
G|------------|------------|------------|------------|
D|--5-------5-|--5-------5-|--5-------5-|--5-------5-|
A|2---2-------|2---2-------|2---2-------|2---2-------|
E|------------|------------|------------|------------|
--------------------let it ring--------------------

+1 reply
Jaywalk777 89 Feb 11, 2014 10:54 AM

This is the only tab that I have seen with the correct bridge
5 Stars Mate! Well Done!

0 reply
Evan.S.Beard 264 Feb 17, 2014 08:04 AM

the lead lick needs to be moved down a string. but otherwise, perfect! also props for getting the bridge right! only one i've seen to do so

guest
You may want to rate the tab now too:
select rating
Wanna post a correction for this tab? Suggest correction