Oops, an error
Loading. Please wait.

Bomb The Town bass

by 311
34 views 1 this week
no commentswrite comment
1 2 3 4 5
3 more votes to show rating
add to favorites
×
Save as Personal and add changes to this tab that will be seen only by you. Learn more ›
×
You can save this tab as Personal to edit and correct it or add notes. All changes will be seen only by you. Learn more »
launch autoscroll
font size
0
reset
guitar tuner
edit
Autoscroll
slow
fast
+/-
esc
set tempo
stop
About this tab version
Full bass tab with all parts of the song. Was this info helpful? Yes No
Artist/Song:   311 - "Bomb the Town"
Album:         Studio Outtake
Tuning:        Standard
tabbed by:     jjhand

[Intro]
G|----------------------------|-----------------------------|
D|-----------1------------1---|-----------1-------------1---|
A|---------4------------4-----|---------4-------------4-----|
E|-1---1---------1---1--------|-1---1---------1---1---------|
B|----------------------------|-----------------------------|

G|----------------------------|-----------------------------|
D|-----------1------------1---|-----------1-------------1---|
A|---------4------------4-----|---------4-------------4-----|
E|-1---1---------1---1--------|-1---1---------1---1---------|
B|----------------------------|-----------------------------|



[Verse]
G|----------------------------|-----------------------------|
D|-----------1------------1---|-----------1-------------1---|
A|---------4------------4-----|---------4-------------4-----|
E|-1---1---------1---1--------|-1---1---------1---1---------|
B|----------------------------|-----------------------------|


G|----------------------------|-----------------------------|
D|-----------1------------1---|-----------1-------------1---|
A|---------4------------4-----|---------4-------------4-----|
E|-1---1---------1---1--------|-1---1---------1---1---------|
B|----------------------------|-----------------------------|


G|--------------------------------------------------|
D|--------------------------------------------------|
A|--------------------------------------------------|
E|-0--0--0--0--3--2--0--2--0------------------------|
B|--------------------------------------------------|


G|--------------------------------------------------|
D|--------------------------------------------------|
A|--------------------------------------------------|
E|-0--0--2--0--3--2--0--2--0------------------------|
B|--------------------------------------------------|


G|--------------------------------------------------|
D|--------------------------------------------------|
A|--------------------------------------------------|
E|-0--0--0--0--3--2--0--2--0------------------------|
B|--------------------------------------------------|


G|--------------------------------------------------|
D|--------------------------------------------------|
A|--------------------------------------------------|
E|-0--0--2--0--3--2--0--2--0-----------0------------|
B|--------------------------------------------------|


G|----------------------------|-----------------------------|
D|-----------1------------1---|-----------1-------------1---|
A|---------4------------4-----|---------4-------------4-----|
E|-1---1---------1---1--------|-1---1---------1---1---------|
B|----------------------------|-----------------------------|


G|----------------------------|-----------------------------|
D|-----------1------------1---|-----------1-------------1---|
A|---------4------------4-----|---------4-------------4-----|
E|-1---1---------1---1--------|-1---1---------1---1---------|
B|----------------------------|-----------------------------|


G|--------------------------------------------------|
D|--------------------------------------------------|
A|--------------------------------------------------|
E|-0--0--0--0--3--2--0--2--0------------------------|
B|--------------------------------------------------|


G|--------------------------------------------------|
D|--------------------------------------------------|
A|--------------------------------------------------|
E|-0--0--2--0--3--2--0--2--0------------------------|
B|--------------------------------------------------|


G|--------------------------------------------------|
D|--------------------------------------------------|
A|--------------------------------------------------|
E|-0--0--0--0--3--2--0--2--0------------------------|
B|--------------------------------------------------|


G|--------------------------------------------------|
D|--------------------------------------------------|
A|--------------------------------------------------|
E|-0--0--2--0--3--2--0--2--0-----------0------------|
B|--------------------------------------------------|


[Riff 2]
G|-----------------------------------------------|
D|-----------------------------------------------|
A|-----------------------------------------------|
E|-1--1--1--1--------------1----1----------------|
B|-------------2--2--2---------------2--2--2--2--|

G|-----------------------------------------------|
D|-----------------------------------------------|
A|-----------------------------------------------|
E|-1--1--1--1--------------1----1----------------|
B|-------------2--2--2---------------2--2--2--2--|

G|-----------------------------------------------|
D|-----------------------------------------------|
A|-----------------------------------------------|
E|-1--1--1--1--------------1----1----------------|
B|-------------2--2--2---------------2--2--2--2--|

G|---------------------------------------------|
D|---------------------------------------------|
A|---------------------------------------------|
E|-1--1--1----------------1--1-----------1-----|
B|-------------2--2--2----------2--2--2-----2--|



[Chorus]
G|-------------------------------|---------------------------------|
D|-------------------------------|---------------------------------|
A|-------------------------------|---------------------------------|
E|-0-0-0--------5-0-0-0----------|-5-5-5---3-3-3---2-2-2---3-3-3---|
B|-------------------------------|---------------------------------|

G|-------------------------------|---------------------------------|
D|-------------------------------|---------------------------------|
A|-------------------------------|---------------------------------|
E|-0-0-0--------5-0-0-0----------|-5-------3-------2-------3-------|
B|-------------------------------|---------------------------------|

G|-------------------------------|---------------------------------|
D|-------------------------------|---------------------------------|
A|-------------------------------|---------------------------------|
E|-0-0-0--------5-0-0-0----------|-5-5-5---3-3-3---2-2-2---3-3-3---|
B|-------------------------------|---------------------------------|

G|-------------------------------|---------------------------------|
D|-------------------------------|---------------------------------|
A|-------------------------------|---------------------------------|
E|-0-0-0--------5-0-0-0----------|-5-------3-------2-------3-------|
B|-------------------------------|---------------------------------|



[Guitar Solo]
G|----------------------------|-----------------------------|
D|-----------1------------1---|-----------1-------------1---|
A|---------4------------4-----|---------4-------------4-----|
E|-1---1---------1---1--------|-1---1---------1---1---------|
B|----------------------------|-----------------------------|

G|----------------------------|-----------------------------|
D|-----------1------------1---|-----------1-----------------|
A|---------4------------4-----|---------4-------------------|
E|-1---1---------1---1--------|-1---1---------1-------------|
B|----------------------------|-----------------------------|


G|----------------------------|-----------------------------|
D|-----------1------------1---|-----------1-------------1---|
A|---------4------------4-----|---------4-------------4-----|
E|-1---1---------1---1--------|-1---1---------1---1---------|
B|----------------------------|-----------------------------|


G|----------------------------|-----------------------------|
D|-----------1------------1---|-----------1-------------1---|
A|---------4------------4-----|---------4-------------4-----|
E|-1---1---------1---1--------|-1---1---------1---1---------|
B|----------------------------|-----------------------------|


G|--------------------------------------------------|
D|--------------------------------------------------|
A|--------------------------------------------------|
E|-0--0--0--0--3--2--0--2--0------------------------|
B|--------------------------------------------------|


G|--------------------------------------------------|
D|--------------------------------------------------|
A|--------------------------------------------------|
E|-0--0--2--0--3--2--0--2--0------------------------|
B|--------------------------------------------------|


G|--------------------------------------------------|
D|--------------------------------------------------|
A|--------------------------------------------------|
E|-0--0--0--0--3--2--0--2--0------------------------|
B|--------------------------------------------------|


G|--------------------------------------------------|
D|--------------------------------------------------|
A|--------------------------------------------------|
E|-0--0--2--0--3--2--0--2--0-----------0------------|
B|--------------------------------------------------|


G|----------------------------|-----------------------------|
D|-----------1------------1---|-----------1-------------1---|
A|---------4------------4-----|---------4-------------4-----|
E|-1---1---------1---1--------|-1---1---------1---1---------|
B|----------------------------|-----------------------------|


G|----------------------------|-----------------------------|
D|-----------1------------1---|-----------1-------------1---|
A|---------4------------4-----|---------4-------------4-----|
E|-1---1---------1---1--------|-1---1---------1---1---------|
B|----------------------------|-----------------------------|


G|--------------------------------------------------|
D|--------------------------------------------------|
A|--------------------------------------------------|
E|-0--0--0--0--3--2--0--2--0------------------------|
B|--------------------------------------------------|


G|--------------------------------------------------|
D|--------------------------------------------------|
A|--------------------------------------------------|
E|-0--0--2--0--3--2--0--2--0------------------------|
B|--------------------------------------------------|


G|--------------------------------------------------|
D|--------------------------------------------------|
A|--------------------------------------------------|
E|-0--0--0--0--3--2--0--2--0------------------------|
B|--------------------------------------------------|


G|--------------------------------------------------|
D|--------------------------------------------------|
A|--------------------------------------------------|
E|-0--0--2--0--3--2--0--2--0-----------0------------|
B|--------------------------------------------------|


[Riff 2]
G|-----------------------------------------------|
D|-----------------------------------------------|
A|-----------------------------------------------|
E|-1--1--1--1--------------1----1----------------|
B|-------------2--2--2---------------2--2--2--2--|

G|-----------------------------------------------|
D|-----------------------------------------------|
A|-----------------------------------------------|
E|-1--1--1--1--------------1----1----------------|
B|-------------2--2--2---------------2--2--2--2--|

G|-----------------------------------------------|
D|-----------------------------------------------|
A|-----------------------------------------------|
E|-1--1--1--1--------------1----1----------------|
B|-------------2--2--2---------------2--2--2--2--|

G|---------------------------------------------|
D|---------------------------------------------|
A|---------------------------------------------|
E|-1--1--1----------------1--1-----------1-----|
B|-------------2--2--2----------2--2--2-----2--|


[Chorus]
G|-------------------------------|---------------------------------|
D|-------------------------------|---------------------------------|
A|-------------------------------|---------------------------------|
E|-0-0-0--------5-0-0-0----------|-5-5-5---3-3-3---2-2-2---3-3-3---|
B|-------------------------------|---------------------------------|

G|-------------------------------|---------------------------------|
D|-------------------------------|---------------------------------|
A|-------------------------------|---------------------------------|
E|-0-0-0--------5-0-0-0----------|-5-------3-------2-------3-------|
B|-------------------------------|---------------------------------|

G|-------------------------------|---------------------------------|
D|-------------------------------|---------------------------------|
A|-------------------------------|---------------------------------|
E|-0-0-0--------5-0-0-0----------|-5-5-5---3-3-3---2-2-2---3-3-3---|
B|-------------------------------|---------------------------------|

G|-------------------------------|---------------------------------|
D|-------------------------------|---------------------------------|
A|-------------------------------|---------------------------------|
E|-0-0-0--------5-0-0-0----------|-5-------3-------2-------3-------|
B|-------------------------------|---------------------------------|


[Ending Riff]
G|---------------------------------|---------------------------------|
D|---------------------------------|---------------------------------|
A|---------------------------------|---------------------------------|
E|-0-0-0-0-5-3-2-3-0---0---0---0---|-5-5-5---3-3-3---2-2-2---3-3-3---|
B|---------------------------------|---------------------------------|

G|---------------------------------|---------------------------------|
D|---------------------------------|---------------------------------|
A|---------------------------------|---------------------------------|
E|-0-0-0-0-5-3-2-3-0---0---0---0---|-5-5-5---3-3-3---2-2-2---3-3-3---|
B|---------------------------------|---------------------------------|

G|---------------------------------|---------------------------------|
D|---------------------------------|---------------------------------|
A|---------------------------------|---------------------------------|
E|-0-0-0-0-5-3-2-3-0---0---0---0---|-5-5-5---3-3-3---2-2-2---3-3-3---|
B|---------------------------------|---------------------------------|

G|---------------------------------|---------------------------------|----------|
D|---------------------------------|---------------------------------|----------|
A|---------------------------------|---------------------------------|----------|
E|-0-0-0-0-5-3-2-3-0---0---0---0---|-5-5-5-5-3-3-3-3-2-2-2-2-3-3-3-3-|-0--0-----|
B|---------------------------------|---------------------------------|----------|


Key:
| /  slide up
| \  slide down
| h  hammer-on
| p  pull-off
| ~  vibrato


            
            
Suggest correction
Creating personal tab
Creating personal tab
You can edit any tab online and save it as your Personal.

You can edit, replace or remove any tab part or add personal notes – all changes will be seen only by you.

Personal tabs can be accessed anytime from any device, even offline.
Learn more »
Give kudos to tab author, rate the tab!
1 2 3 4 5
comments
print report bad tab
guest
You may want to rate the tab now too:
select rating
Wanna post a correction for this tab? Suggest correction