Oops, an error
Loading. Please wait.

Do You Right tab

by 311
8,470 views 6 this week
4 commentsread comments
1 2 3 4 5
x 9
add to favorites
×
Save as Personal and add changes to this tab that will be seen only by you. Learn more ›
×
You can save this tab as Personal to edit and correct it or add notes. All changes will be seen only by you. Learn more »
launch autoscroll
font size
0
reset
how to read this tab
guitar tuner
edit
Autoscroll
slow
fast
+/-
esc
set tempo
stop
-------------------------------------------------------------------------------
                             DO YOU RIGHT - 311
-------------------------------------------------------------------------------
Tabbed by:  RUSTDOGG666
Email:  motionlessz@cox.net

Tuning:  Standard  (E, A, D, G, B, e)

Intro:

e|---------------------|
B|---------------------|
G|---------------------|
D|---------------------|
A|---------------------|
E|--0-4-5-0-4-5-0-4-5--|

Verse 1 and Verse 2 and Verse 3:

      E  D  E  D
e|----7--5--7--5----|
B|----9--7--9--7----|
G|----9--7--9--7----|
D|----9--7--9--7----|
A|----7--5--7--5----|
E|----7--5--7--5----|

Prechorus:

      E  F  E  F  E  F  E  F  F  F  F  F
e|----0--1--0--1--0--1--0--1--1--1--1--1----|
B|----0--1--0--1--0--1--0--1--1--1--1--1----|
G|----1--2--1--2--1--2--1--2--2--2--2--2----|
D|----2--3--2--3--2--3--2--3--3--3--3--3----|
A|----2--3--2--3--2--3--2--3--3--3--3--3----|
E|----0--1--0--1--0--1--0--1--1--1--1--1----|

Chorus:

      A  D  E  D    
e|----5--5--7--5----|
B|----5--7--9--7----|
G|----6--7--9--7----|
D|----7--7--9--7----|
A|----7--5--7--5----|
E|----5--5--7--5----|

Solo:

e|--5-4-2-0--------------------|
B|----------3-2-0-2-3-2-0------|
G|------------------------2-2--|
D|-----------------------------|
A|-----------------------------|
E|-----------------------------|

Slide:
Start at fret 2, slide up to fret 12, then slide back down to fret 2.
Thats the best way to explain this tab below.

e|--------------|
B|--------------|
G|--------------|
D|--------------|
A|--------------|
E|----2/12\2----|

| /  slide up
| \  slide down
| h  hammer-on
| p  pull-off
| ~  vibrato
| +  harmonic
| x  Mute note

===============================================================================

Sequence:
Intro(x8)-Verse 1-Prechorus-Verse 2-Prechorus-Intro(x4)-Short Pause-Chorus(x8)-
Solo-Slide-Verse 3-Prechorus-Intro(x4)-Short Pause-Chorus(x8)-Bridge[Drums And
Vocals Only-Chorus(x4)]-Chorus(x4)-Solo-Slide-Intro(x4)(Slower).

Get the 311 Music CD and jam to this track. It is really easy. All you have to do]
is listen to the song and you'll get the idea of what I'm telling you. They may
have added some soloing to the chorus right after the short pause, but I didn't
include that, because the chords can take its place. So I didn't bother to figure
out that part if there was any.  Enjoy! 311 Rocks!!

            
            
Suggest correction
Creating personal tab
Creating personal tab
You can edit any tab online and save it as your Personal.

You can edit, replace or remove any tab part or add personal notes – all changes will be seen only by you.

Personal tabs can be accessed anytime from any device, even offline.
Learn more »
comments
print report bad tab
4 comments total. Showing first comments.
0 reply
RUSTDOGG666 110 Feb 05, 2003 07:00 PM

This tab is 100% correct. There are no corrections needed.

0 reply
aust1nz 10 Apr 18, 2004 08:00 PM

great tab - tiny error - in the final solo, the top e string is 5 - 4- 2- 0, not 5-3-2-0. like i said, tiny error. great tab. i gave it a 5

0 reply
pensfan0782 10 Dec 11, 2006 06:41 PM

i just watched 311 day and i think the solo is more like this:

e|--------------------------------------|
B|--------------------------------------|
G|-14-13-11-----------------------------|
D|---------14-12-11-9-11-12-11-9--------|
A|------------------------------12-12\--|
E|--------------------------------------|


it sounds near identical, but in the song you get that slide at the end, which isn't in your tab. nonetheless, 5 stars.

guest
You may want to rate the tab now too:
select rating
Wanna post a correction for this tab? Suggest correction