Oops, an error
Loading. Please wait.

Seal The Deal tab

version 2
version 2

Whole song

by 311
4,146 views 21 this week
no commentswrite comment
1 2 3 4 5
2 more votes to show rating
add to favorites
×
Save as Personal and add changes to this tab that will be seen only by you. Learn more ›
×
You can save this tab as Personal to edit and correct it or add notes. All changes will be seen only by you. Learn more »
launch autoscroll
font size
0
reset
how to read this tab
guitar tuner
edit
Autoscroll
slow
fast
+/-
esc
set tempo
stop
Author
Artist: 311
Song: Seal The Deal
Album: Soundsystem "Outtake"
Tuning: 7 string standard, BEADGBE
Tabbed by jjhand, 

Please rate this tab so others will check it out too. Slides are "/" 


Intro/Verse (with Distortion), played 10x
e|------------------|-----------------|
b|------------------|-----------------|
G|------------------|-----------------|
D|------------------|-----------------|
A|------------------|-----------------|
E|-7-7-7-11---9---5-|-5-5-5-5---4---5-|
B|-0-0-0-0--0-0-0-0-|-0-0-0-0-0-0-0-0-|


Chorus:
e|--------------------|------------------|--------------------|-----------------|
b|--------------------|------------------|--------------------|-----------------|
G|--------------------|------------------|--------------------|-----------------|
D|--------------------|------------------|--------------------|-----------------|
A|-5/7----7----5----5-|---7---5-5-4------|-5/7----7----5----4-|---5---4---3-----|
E|-5/7----7----5----5-|---7---5-5-4------|-5/7----7----5----4-|---5---4---3-----|
B|-3/5----5----3----3-|---5---3-3-2------|-3/5----5----3----2-|---3---2---1-----|

play Intro/Verse 2x

Play Chorus again

play Intro/Verse 1x, then:

Chorus ending
e|------------------|-----------------|
b|------------------|-----------------|
G|------------------|-----------------|
D|------------------|-----------------|
A|------------------|-----------------|
E|-7-7-7-11---9---5-|-----4-7-5-4-----|
B|-0-0-0-0--0-0-0-0-|---0---------7-7-|




Heavy Riff, play 4x
e|------------------|-----------------|
b|------------------|-----------------|
G|------------------|-----------------|
D|------------------|-----------------|
A|---4-4---4-4----4-|-4---4-4---5--4--|
E|---4-4---4-4----4-|-4---4-4---5--4--|
B|-0-2-2---2-2----2-|-2---2-2---3--2--|
   ^ 
   only play this note on first time



play Intro/Verse 10x again w/ some Lyrics



Just as before, Play Chorus riff, Verse 2x, Chorus, Verse 1x

end with Chorus ending 


Play Heavy riff, then play Intro/Verse 2x, then play Heavy riff again


Ending:
then play Intro/Verse 1x, then end on chorus ending part.

            
            
Suggest correction
Creating personal tab
Creating personal tab
You can edit any tab online and save it as your Personal.

You can edit, replace or remove any tab part or add personal notes – all changes will be seen only by you.

Personal tabs can be accessed anytime from any device, even offline.
Learn more »
Give kudos to tab author, rate the tab!
1 2 3 4 5
comments
print report bad tab
guest
You may want to rate the tab now too:
select rating
Wanna post a correction for this tab? Suggest correction