Oops, an error
Loading. Please wait.

You Wouldnt Believe bass

version 3
version 3

Whole song

Interactive

by 311
1,661 views 1 this week
1 commentread comment
1 2 3 4 5
1 last vote to show rating
add to favorites
×
Save as Personal and add changes to this tab that will be seen only by you. Learn more ›
×
You can save this tab as Personal to edit and correct it or add notes. All changes will be seen only by you. Learn more »
launch autoscroll
font size
0
reset
guitar tuner
edit
Autoscroll
slow
fast
+/-
esc
set tempo
stop
Author
311 - You Wouldn’t Believe
Tabbed By: Wolf46
 
Tuning: Standard (5 String)

A lot of the riffs are the same thing it was done this way so I could put the song in order

Legend:
P= Pull off
x= muted note 

Riff 1
G|--------------------------------|
D|--------------------------------|
A|-------------------------0-3-0-3| (X10)
E|--------------------------------|
B|-333-33-11-111-333-33-11--------|

Riff 2
G|---------------------------------|
D|---------------------------------|
A|------------------0-0-0-2-2-3-3-3| (X3)
E|-0-0-0-2-2-2-3-3-3---------------|
B|---------------------------------|

Riff 3
G|---------------------------------|
D|---------------------------------|
A|-------------------0-------------| (X1)
E|-0-0-0-2-2-2-3-3-3---------------|
B|---------------------------------|

Riff 4
G|--------------------------------|
D|--------------------------------|
A|-------------------------0-3-0-3| (X4)
E|--------------------------------|
B|-333-33-11-111-333-33-11--------|

Rest

Bass Solo
G|-------0-2-4-5-4-2-2-4-2-x2p0-------0-2-4-5-4-2-2-4-2-xx7-xx7|
D|-0-0-4------------------------0-0-4--------------------------|
A|-------------------------------------------------------------|
E|-------------------------------------------------------------|
B|-------------------------------------------------------------|

Riff 5
G|--------------------------------|
D|--------------------------------|
A|-------------------------0-3-0-3| (X10)
E|--------------------------------|
B|-333-33-11-111-333-33-11--------|


Riff 6
G|---------------------------------|
D|---------------------------------|
A|------------------0-0-0-2-2-3-3-3| (X3)
E|-0-0-0-2-2-2-3-3-3---------------|
B|---------------------------------|


Riff 7
G|---------------------------------|
D|---------------------------------|
A|-------------------0-------------| (X1)
E|-0-0-0-2-2-2-3-3-3---------------|
B|---------------------------------|

Riff 8
G|--------------------------------|
D|--------------------------------|
A|-------------------------0-3-0-3| (X2)
E|--------------------------------|
B|-333-33-11-111-333-33-11--------|

Riff 9 (small between first and second parts)
G|------------------------------------|
D|---------------h--------------------|
A|---------------e-----------0-3-0-3--| (X2)
E|---------------r--------------------|
B|-333-33-11-111-e-333-33-11----------|

Riff 10
G|----------------------------------------|
D|-------------------------------------0-0|
A|-3-0-3-0-3---3-0-3-0-3---3-3-0-3-0-3----| (X1)
E|----------------------------------------|
B|----------------------------------------|

            
            
Suggest correction
Creating personal tab
Creating personal tab
You can edit any tab online and save it as your Personal.

You can edit, replace or remove any tab part or add personal notes – all changes will be seen only by you.

Personal tabs can be accessed anytime from any device, even offline.
Learn more »
Give kudos to tab author, rate the tab!
1 2 3 4 5
comments
print report bad tab
1 comment total.
0 reply
Lost Dog 184 Aug 02, 2011 11:03 PM

Great tab!

guest
You may want to rate the tab now too:
select rating
Wanna post a correction for this tab? Suggest correction