Oops, an error
Loading. Please wait.

Too Fast For Love bass

version 4
version 4
9,048 views 6 this week
3 commentsread comments
1 2 3 4 5
x 12
add to favorites
×
Save as Personal and add changes to this tab that will be seen only by you. Learn more ›
×
You can save this tab as Personal to edit and correct it or add notes. All changes will be seen only by you. Learn more »
launch autoscroll
font size
0
reset
guitar tuner
backing track
0:00
0:00
edit
Autoscroll
slow
fast
+/-
esc
set tempo
stop
Author
Difficulty
Unregistered
Band: Motley Crue
Song: Too Fast For Love
Album: Too Fast For Love
Bass: Nikki Sixx
Tabbed by BIG TOMMY P
I would like to thank valkeyrie3@hotmail.com, I got
most of this from that tab. This will shit on every other
bass tab of this song.

Words and Music by Nikki Sixx

Intro 1: (x1)
F|---------------------------------------|
C|---------------------------------------|
G|-55555555-55555555-55555555------------|
D|----------------------------55555555---|

Intro 2: (x2)
F|---------------------------------------|
C|---------------------------------------|
G|-0--2-0-3--0-4--0-5-0-6h7-6h7----------|
D|---------------------------------------|

Intro 3: (x2)
F|---------------------------------------|
C|---------------------------------------|
G|---------------------------------------|
D|-0--2-0-3--0-4--0-5-0-6h7-6h7----------|

Intro 2 (x2)
F|---------------------------------------|
C|---------------------------------------|
G|-0--2-0-3--0-4--0-5-0-6h7-6h7----------|
D|---------------------------------------|

Verse: (x1)
F|---------------------------------------------------------------------------|
C|---------------------------------------------------------------------------|
G|77777-77777-77777-77777-77777-77777-------------00000-00000-77777-77777----|
D|------------------------------------44444-44444----------------------------|

Intro 2 (x2)
F|---------------------------------------|
C|---------------------------------------|
G|-0--2-0-3--0-4--0-5-0-6h7-6h7----------|
D|---------------------------------------|

Verse (x1)
F|---------------------------------------------------------------------------|
C|---------------------------------------------------------------------------|
G|77777-77777-77777-77777-77777-77777-------------00000-00000-77777-77777----|
D|------------------------------------44444-44444----------------------------|

Intro 2 (x2)
F|---------------------------------------|
C|---------------------------------------|
G|-0--2-0-3--0-4--0-5-0-6h7-6h7----------|
D|---------------------------------------|

Chorus 1: (x1)
F|---------------------------------------|
C|---------------------------------------|
G|-22222222-22222222-00000000-00000000---|
D|---------------------------------------|

Chorus 2: (x1)
F|--------------------------------------------------|
C|--------------------------------------------------|
G|-77777777-77777775-55-44-22-00------------0-1-2---|
D|--------------------------------33-22-00----------|

Chorus 1 (x1)
F|---------------------------------------|
C|---------------------------------------|
G|-22222222-22222222-00000000-00000000---|
D|---------------------------------------|

Chorus 3: (x1)
F|---------------------------------------|
C|---------------------------------------|
G|-77777777-77777777-5-------------------|
D|---------------------------------------|

Intro 2 (x2)
F|---------------------------------------|
C|---------------------------------------|
G|-0--2-0-3--0-4--0-5-0-6h7-6h7----------|
D|---------------------------------------|

Verse (x1)
F|---------------------------------------------------------------------------|
C|---------------------------------------------------------------------------|
G|77777-77777-77777-77777-77777-77777-------------00000-00000-77777-77777----|
D|------------------------------------44444-44444----------------------------|

Intro 2 (x2)
F|---------------------------------------|
C|---------------------------------------|
G|-0--2-0-3--0-4--0-5-0-6h7-6h7----------|
D|---------------------------------------|

Chorus 1: (x1)
F|---------------------------------------|
C|---------------------------------------|
G|-22222222-22222222-00000000-00000000---|
D|---------------------------------------|

Chorus 2: (x1)
F|--------------------------------------------------|
C|--------------------------------------------------|
G|-77777777-77777775-55-44-22-00------------0-1-2---|
D|--------------------------------33-22-00----------|

Chorus 1 (x1)
F|---------------------------------------|
C|---------------------------------------|
G|-22222222-22222222-00000000-00000000---|
D|---------------------------------------|

Chorus 3: (x1)
F|---------------------------------------|
C|---------------------------------------|
G|-77777777-77777777-5-------------------|
D|---------------------------------------|

Bass Solo: (x1)
F|----7-----8-----9-----10----11---------|
C|---------------------------------------|
G|-5----6-----7-----8------9------0-1-2--|
D|---------------------------------------|

Chorus 1 (x1)
F|---------------------------------------|
C|---------------------------------------|
G|-22222222-22222222-00000000-00000000---|
D|---------------------------------------|

Chorus 3 (x1)
F|---------------------------------------|
C|---------------------------------------|
G|-77777777-77777777-5-------------------|
D|---------------------------------------|

Chorus 1 (x1)
F|---------------------------------------|
C|---------------------------------------|
G|-22222222-22222222-00000000-00000000---|
D|---------------------------------------|

Chorus 3 (x1)
F|---------------------------------------|
C|---------------------------------------|
G|-77777777-77777777-5-------------------|
D|---------------------------------------|

Chorus 1 (x1)
F|---------------------------------------|
C|---------------------------------------|
G|-22222222-22222222-00000000-00000000---|
D|---------------------------------------|

That’s it. A damn good tab if you ask me.

            
            
Suggest correction
Creating personal tab
Creating personal tab
You can edit any tab online and save it as your Personal.

You can edit, replace or remove any tab part or add personal notes – all changes will be seen only by you.

Personal tabs can be accessed anytime from any device, even offline.
Learn more »
comments
print report bad tab
3 comments total.
0 reply
MattChrist 10 Dec 28, 2007 04:07 AM

Awesome dude.. Evverythings perfect here..

0 reply
mjuna 10 Aug 17, 2008 05:11 AM

let's face it, this tab IS perfect

0 reply
x_Motley-Crue_x 10 Feb 16, 2009 10:01 AM

Brilliant tab! Sounded great!

guest
Wanna post a correction for this tab? Suggest correction