Oops, an error
Loading. Please wait.

Silent Lucidity tab

version 2
version 2
39,905 views 63 this week
3 commentsread comments
1 2 3 4 5
x 14
add to favorites
×
Save as Personal and add changes to this tab that will be seen only by you. Learn more ›
×
You can save this tab as Personal to edit and correct it or add notes. All changes will be seen only by you. Learn more »
launch autoscroll
font size
0
reset
how to read this tab
guitar tuner
backing track
0:00
0:00
edit
Autoscroll
slow
fast
+/-
esc
set tempo
stop
Author
Difficulty
intermediate
[Intro]
e|--7--7--5--5--5-|--7--7--5--5--5-|--2--2----------|--2--2----------|
B|---0--0--0--0---|---0--0--0--0---|---0--0-2--2--2-|---0--0-2--2--2-|
G|0---0--0--0--0--|0---0--0--0--0--|---------0--0---|---------0--0--0|
D|----------------|----------------|2---2--2--2--2--|2---2--2--2--2--|
A|----------------|----------------|----------------|----------------|
E|----------------|----------------|----------------|----------------|

[First Verse]
e|--7--7--5--5--5-|--7--7--5--5--5-|--2--2----------|--2--2----------|
B|---0--0--0--0---|---0--0--0--0---|---0--0-2--2--2-|---0--0-2--2--2-|
G|0---0--0--0--0--|0---0--0--0--0--|---------0--0---|---------0--0--0|
D|----------------|----------------|2---2--2--2--2--|2---2--2--2--2--|
A|----------------|----------------|----------------|----------------|
E|----------------|----------------|----------------|----------------|
  Hush now..

e|--7--7--5--5--5-|--7--7--5--5--5-|--2--2----------|--2--2----------|
B|---0--0--0--0---|---0--0--0--0---|---0--0-2--2--2-|---0--0-2--2--2-|
G|0---0--0--0--0--|0---0--0--0--0--|---------0--0---|---------0--0--0|
D|----------------|----------------|2---2--2--2--2--|2---2--2--2--2--|
A|----------------|----------------|----------------|----------------|
E|----------------|----------------|----------------|----------------|


e|--0--0----------|--0--0----------|--0--0----------|--0--0----------|
B|--------3--3--3-|--------3--3--3-|--------3--3--3-|--------3--3--3-|
G|---0--0--0--0--0|---0--0--0--0--0|---0--0--0--0--0|---0--0--0--0--0|
D|----------------|----------------|----------------|----------------|
A|3---3--3--3--3--|3---3--3--3--3--|0---0--0--0--0--|0---0--0--0--0--|
E|----------------|----------------|----------------|----------------|
     Your mind..

e|--0--0----------|--0--0----------|--0--0----------|--0--0----------|
B|--------3--3--3-|--------3--3--3-|--------3--3--3-|--------3--3--3-|
G|---0--0--0--0---|---0--0--0--0---|---0--0--0--0---|---0--0--0--0---|
D|----------------|----------------|----------------|----------------|
A|3---3--3--3--3--|3---3--3--3--3--|0---0--0--0--0--|0---0--0--0--0--|
E|----------------|----------------|----------------|----------------|
                                                                  over..
e|X---------------|
B|3---------------|
G|0---------------|
D|5---------------|
A|X---------------|
E|X---------------|
                    Or has it just begun?

[Interlude]
e|----------------|----------------|--2--2----------|--2--2----------|
B|----------------|----------------|---0--0-3--3--3-|---0--0-3--3--3-|
G|--4--4--2--2--2-|--4--4--2--2--2-|---------0--0---|---------0--0---|
D|---0--0--0--0---|---0--0--0--0---|----0--0--0--0--|----0--0--0--0--|
A|----------------|----------------|----------------|----------------|
E|3---3--3--3--3--|3---3--3--3--3--|0---------------|0---------------|

[Second Verse]
e|----------------|----------------|--2--2----------|--2--2----------|
B|----------------|----------------|---0--0-3--3--3-|---0--0-3--3--3-|
G|--4--4--2--2--2-|--4--4--2--2--2-|---------0--0---|---------0--0---|
D|---0--0--0--0---|---0--0--0--0---|----0--0--0--0--|----0--0--0--0--|
A|----------------|----------------|----------------|----------------|
E|3---3--3--3--3--|3---3--3--3--3--|0---------------|0---------------|
  There's a..

e|----------------|----------------|--2--2----------|--2--2----------|
B|----------------|----------------|---0--0-3--3--3-|---0--0-3--3--3-|
G|--4--4--2--2--2-|--4--4--2--2--2-|---------0--0---|---------0--0---|
D|---0--0--0--0---|---0--0--0--0---|----0--0--0--0--|----0--0--0--0--|
A|----------------|----------------|----------------|----------------|
E|3---3--3--3--3--|3---3--3--3--3--|0---------------|0---------------|

e|--0--0----------|--0--0----------|--0--0----------|--0--0----------|
B|--------3--3--3-|--------3--3--3-|--------3--3--3-|--------3--3--3-|
G|---0--0--0--0---|---0--0--0--0---|---0--0--0--0---|---0--0--0--0---|
D|----------------|----------------|----------------|----------------|
A|3---3--3--3--3--|3---3--3--3--3--|0---0--0--0--0--|0---0--0--0--0--|
E|----------------|----------------|----------------|----------------|
  It's a place..

e|--0--0----------|--0--0----------|--0--0----------|--0--0----------|
B|--------3--3--3-|--------3--3--3-|--------3--3--3-|--------3--3--3-|
G|---0--0--0--0---|---0--0--0--0---|---0--0--0--0---|---0--0--0--0---|
D|----------------|----------------|----------------|----------------|
A|3---3--3--3--3--|3---3--3--3--3--|0---0--0--0--0--|0---0--0--0--0--|
E|----------------|----------------|----------------|----------------|
                                             dimension
[Chorus]
e|3---------------|----1-----------|3---------------|----1-----------|
G|2---------------|----0-----------|2---------------|----0-----------|
D|0---------------|----2-----------|0---------------|----2-----------|
A|X---------------|----3-----------|X---------------|----3-----------|
E|X---------------|----X-----------|X---------------|----X-----------|
  I---------------|--------Will be.....you                  Am gonna..
                                        I-----------|---------

e|2---------------|----0-----------|2---------------|----X-X-X-X-X---|
B|3---------------|----1-----------|3---------------|----X-X-X-X-X---|
G|2---------------|----0-----------|2---------------|----9-7-5-X-5---|
D|0---------------|----2-----------|0---------------|----109-5-X-5---|
A|X---------------|----3-----------|X---------------|----X-X-X-7-X---|
E|X---------------|----X-----------|X---------------|----X-X-X-X-X---|
   through               Will........night             Am.......you
      I-----------|--------             I-----------|----
  
e|X---------------|
B|X---------------|
G|X---------------|
D|X---------------|
A|X---------------|
E|X---------------|
  In Silent Lucidity

[Interlude]
e|----------------|----------------|
B|----------------|----------------|
G|--4--4--2--2--2-|--4--4--2--2--2-|
D|---0--0--0--0---|---0--0--0--0---|
A|----------------|----------------|
E|3---3--3--3--3--|3---3--3--3--3--|

[Solo]
e|----------------|----------------|----------------|----------------|
B|4---8-6---118---|8-6---4---1-----|----------1111-3|4-1-------4---8-|
G|----------------|--------3-------|----------------|----------------|
D|----------------|----------------|----------------|----------------|
A|----------------|----------------|----------------|----------------|
E|----------------|----------------|----------------|----------------|

e|----------------|------/-/---------|--/-/-----------/-/-|
B|6---118---8-6---|4---3-/4/31-------|3-/4/31-------3-/4/3|
G|----------------|--3---/-/---------|--/-/-----------/-/-|
D|----------------|------/-/---------|--/-/-----------/-/-|
A|----------------|------/-/---------|--/-/-----------/-/-|
E|----------------|------/-/---------|--/-/-----------/-/-|

e|----------/-/-----|------/-/---------|--/-/-----------/-/-|
B|1-------3-/4/31---|----3-/4/31-------|3-/4/31-------3-/4/3|
G|----------/-/-----|------/-/---------|--/-/-----------/-/-|
D|----------/-/-----|------/-/---------|--/-/-----------/-/-|
A|----------/-/-----|------/-/---------|--/-/-----------/-/-|
E|----------/-/-----|------/-/---------|--/-/-----------/-/-|
          Visualize...   

e|----------/-/-----|------/-/---------|--/-/-------------|
B|1-------3-/4/31---|----3-/4/31-------|3-/4/31-------0---|
G|----------/-/-----|------/-/---------|--/-/-------------|
D|----------/-/-----|------/-/---------|--/-/-------------|
A|----------/-/-----|------/-/---------|--/-/-------------|
E|----------/-/-----|------/-/---------|--/-/-------------|

e|----------------|
B|----------------|
G|----------------|
D|----------------|
A|----------------|
E|----------------|

[Third Verse]
e|----------------|----------------|--2--2----------|--2--2----------|
B|----------------|----------------|---0--0-3--3--3-|---0--0-3--3--3-|
G|--4--4--2--2--2-|--4--4--2--2--2-|---------0--0---|---------0--0---|
D|---0--0--0--0---|---0--0--0--0---|----0--0--0--0--|----0--0--0--0--|
A|----------------|----------------|----------------|----------------|
E|3---3--3--3--3--|3---3--3--3--3--|0---------------|0---------------|
      If you...

e|----------------|----------------|--2--2----------|--2--2----------|
B|----------------|----------------|---0--0-3--3--3-|---0--0-3--3--3-|
G|--4--4--2--2--2-|--4--4--2--2--2-|---------0--0---|---------0--0---|
D|---0--0--0--0---|---0--0--0--0---|----0--0--0--0--|----0--0--0--0--|
A|----------------|----------------|----------------|----------------|
E|3---3--3--3--3--|3---3--3--3--3--|0---------------|0---------------|
      The walls...

e|--0--0----------|--0--0----------|--0--0----------|--0--0----------|
B|--------3--3--3-|--------3--3--3-|--------3--3--3-|--------3--3--3-|
G|---0--0--0--0---|---0--0--0--0---|---0--0--0--0---|---0--0--0--0---|
D|----------------|----------------|----------------|----------------|
A|3---3--3--3--3--|3---3--3--3--3--|0---0--0--0--0--|0---0--0--0--0--|
E|----------------|----------------|----------------|----------------|
      Living...

e|--0--0----------|--0--0----------|--0--0----------|--0--0----------|
B|--------3--3--3-|--------3--3--3-|--------3--3--3-|--------3--3--3-|
G|---0--0--0--0---|---0--0--0--0---|---0--0--0--0---|---0--0--0--0---|
D|----------------|----------------|----------------|----------------|
A|3---3--3--3--3--|3---3--3--3--3--|0---0--0--0--0--|0---0--0--0--0--|
E|----------------|----------------|----------------|----------------|
      A round...

[Chorus]                                
e|3---------------|----1-----------|3---------------|----1-----------|
G|2---------------|----0-----------|2---------------|----0-----------|
D|0---------------|----2-----------|0---------------|----2-----------|
A|X---------------|----3-----------|X---------------|----3-----------|
E|X---------------|----X-----------|X---------------|----X-----------|
  I---------------|--------Will be.....you                  Am gonna..
                                        I-----------|---------

e|2---------------|----0-----------|2---------------|----X-X-X-X-X---|
B|3---------------|----1-----------|3---------------|----X-X-X-X-X---|
G|2---------------|----0-----------|2---------------|----9-7-5-X-5---|
D|0---------------|----2-----------|0---------------|----109-5-X-5---|
A|X---------------|----3-----------|X---------------|----X-X-X-7-X---|
E|X---------------|----X-----------|X---------------|----X-X-X-X-X---|
   through               Will........night             Am.......you
      I-----------|--------             I-----------|----

[Ending]
e|X---------------|----------------|----------------|----------------|
B|X---------------|----------------|----------------|----------------|
G|X---------------|--4--4--2--2--2-|--4--4--2--2--2-|--4--4--2--2--2-|
D|X---------------|---0--0--0--0--0|---0--0--0--0--0|---0--0--0--0--0|
A|X---------------|----------------|----------------|----------------|
E|X---------------|3---3--3--3--3--|3---3--3--3--3--|3---3--3--3--3--|

e|----------------|----------------|----------------|
B|----------------|----------------|----------------|
G|--4--4--2--2--2-|--4--4--2--2--2-|--4--4----------|
D|---0--0--0--0--0|---0--0--0--0--0|---0------------|
A|----------------|----------------|----------------|
E|3---3--3--3--3--|3---3--3--3--3--|3---3-----------|

************************************

| /  Slide up

************************************

            
            
Suggest correction
Creating personal tab
Creating personal tab
You can edit any tab online and save it as your Personal.

You can edit, replace or remove any tab part or add personal notes – all changes will be seen only by you.

Personal tabs can be accessed anytime from any device, even offline.
Learn more »
comments
print report bad tab
3 comments total.
0 reply
gtrboy 10 Dec 10, 2006 03:42 PM

Hey dude - great job on the tab. Loved the ease in which you have it laid out. Great song!!

Peace out

0 reply
angelfromhell99 32 Jun 28, 2009 02:55 PM

Hey man great tab! If I had something to correct though it would be the chorus. 1st You left out the B string, E A D G B e, and second just leave the high e string open.
Overall great job and keep rockin out to great music like this

0 reply
EdRaket 11 Nov 19, 2016 07:04 AM, edited at 12:20 pm

Hi, thanks a lot for this great tab, it saves many people (among myself) a lot of work. I would like to suggest the following small enhancement for the intro however:
e|--7--7--5--5--5-|--7--7--5--5--5-|--2--2----------|--2--2----------|
B|---0--0--0--0---|---0--0--0--0---|---0--0-3--3--3-|---0--0-3--3--3-|
G|----------------|----------------|---------0--0---|---------0--0--0|
D|5~--5--5--5--5--|5~--5--5--5--5--|2~--2--2--2--2--|2~--2--2--2--2--|
A|----------------|----------------|----------------|----------------|
E|----------------|----------------|----------------|----------------|
Best regards,Ed

guest
You may want to rate the tab now too:
select rating
Wanna post a correction for this tab? Suggest correction