Oops, an error
Loading. Please wait.

Underwater tab

version 2
version 2

Whole song

2,167 views 1 this week
no commentswrite comment
1 2 3 4 5
x 3
add to favorites
×
Save as Personal and add changes to this tab that will be seen only by you. Learn more ›
×
You can save this tab as Personal to edit and correct it or add notes. All changes will be seen only by you. Learn more »
launch autoscroll
font size
0
reset
how to read this tab
guitar tuner
edit
Autoscroll
slow
fast
+/-
esc
set tempo
stop
Song: Underwater
Tabbed: Austin Formica


Originally recorded by All-time Quarteback(Ben Gibbard). 
This is as close as youre going to get to sounding the same as the recording,
unless you have a little toy guitar to play it on.

****CAPO 5th Fret*****Standard Tuning****

Verse/Intro/Outro **Note: slide as much as possible between chords.
e|---------------------------------------|
B|---------------------------------------|
G|---2--2---4--4-------------------------|
D|-----------------2--2---0--0-----------|
A|----3--3---5--5---3--3---3--3----------|
E|---------------------------------------|

Chorus
e|------------------------------|
B|------------------------------|
G|-2222/4444--------------------|
D|-3333/5555-5555-0000----------|
A|-----------7777/3333----------|
E|------------------------------|

End of Chorus "...under-water..."
e|------------------|
B|------------------|
G|------------------|
D|--55/22/55-0------|
A|--77/33/77/3------|
E|------------------|

End On this chord! it's not the right one but it works.
e|---------|
B|---------|
G|-0-------|
D|-4-------|
A|-2-------|
E|---------|

Have fun with it
contact me at..
www.all-things-go.blogspot.com
with questions, comments, and tab requests.

            
            
Suggest correction
Creating personal tab
Creating personal tab
You can edit any tab online and save it as your Personal.

You can edit, replace or remove any tab part or add personal notes – all changes will be seen only by you.

Personal tabs can be accessed anytime from any device, even offline.
Learn more »
Give kudos to tab author, rate the tab!
1 2 3 4 5
comments
print report bad tab
guest
You may want to rate the tab now too:
select rating
Wanna post a correction for this tab? Suggest correction