Oops, an error
Loading. Please wait.

All Is Numb tab

version 1
version 1

Whole song

Interactive

6,220 views 1 this week
3 commentsread comments
1 2 3 4 5
x 8
add to favorites
×
Save as Personal and add changes to this tab that will be seen only by you. Learn more ›
×
You can save this tab as Personal to edit and correct it or add notes. All changes will be seen only by you. Learn more »
launch autoscroll
font size
0
reset
how to read this tab
guitar tuner
edit
Autoscroll
slow
fast
+/-
esc
set tempo
stop
Author
Difficulty
Tuning-Standard
Key- Hammer On- H
     Slide Up- /
     Slide down-\
     Palm Mute- Pm......
     Let Ring- ~
     Pull Off- P
This Is My First Tab i have ever done so its probably wrong alot =) but i tried lol.

INTRO:
E|-------------------------------------------------------------------|
B|-------------------------------------------------------------------|
G|-------------------------------------------------------------------|
D|-4--2--1~--1h2--1--------------------------------------------------|
A|---------------------4---4-4 --4 –44-- 4--44--4--4--4--------------|
E|-------------------------------------------------------------------|
                           Pm.      Pm.     Pm.   Pm.


E|-------------------------------------------------------------------|
B|-------------------------------------------------------------------|
G|-------------------------------------------------------------------|
D|-4--2--1-1 1-1h2--1------------------------------------------------|(x2)
A|---------------------4---4-4 --4 –44-- 4--44--4--4--4--------------|
E|-------------------------------------------------------------------|
                           Pm.      Pm.     Pm.   Pm.

E|-------------------------|
B|-------------------------|
G|----------1--------------|
D|-4--2--1----4--2---------|
A|------------------4~-----|
E|-------------------------|

VERSE:

E|---------------------------------------------|
B|---------------------------------------------|
G|-4/6--666666--8888/999--9\4--444444---444444-|
D|---------------------------------------------| (x6)
A|-2/4--444444--6666/777--7\2--222222---222222-|
E|---------------------------------------------|


RIFF BEFORE CHORUS:
E|-------------|
B|-------------|
G|888-99-88----|
D|-------------|
A|666-77-66----|
E|-------------|


CHORUS:
E|--------------------------------------------------------------------|
B|--------------------------------------------------------------------|
G|--6--9---------------------------66x-4-44444------------------------|(x2)
D|--6--9--9-99999---777-4-44444----66x-4-44444--4~--7~----------------|
A|--4--7--9-99999---777-4-44444----44x-2-22222--4~--7~----------------|
E|--------7-77777---555-2-22222-----------------2~--5~----------------|

Solo I:
E|-----------------------------------|
B|-----------------------------------|
G|-----------------------------------|
D|-444h6-666/9\6---444h6-666---------|
A|----------------------------2/4----|
E|-----------------------------------|

E|------------------------------------------------------|
B|------------------------------------------------------|
G|-----------------88-9p8-6-8p6-4-6p4-4444h6------------|
D|-444h6-666/9\6----------------------------------------|
A|------------------------------------------------------|
E|------------------------------------------------------|

E|-----------------------------------|
B|-----------------------------------|
G|-----------------------------------|
D|-444h6-666/9\6---444h6-666---------|
A|----------------------------2/4----|
E|-----------------------------------|

E|-------------------------------------------|
B|---------------------------------5/9-5-----|
G|-----------------88-9p8-6-8p6-4------------|
D|-444h6-666/9\6-----------------------------|
A|-------------------------------------------|
E|-------------------------------------------|

REPEAT TWICE (x2)!


Solo II:

E|------------------------------------------------------------|
B|------------------------------------------------------------|
G|--444h6-66666/8-888888/9-999/11-11-11-11p9-9p8-8888h9p8-6-4-|
D|------------------------------------------------------------|
A|------------------------------------------------------------|
E|------------------------------------------------------------|

E|------------------------------10------12-12-12-12-12/16-16-16-16-9-|
B|-7--7--7/9 9999----------999~--9--12-------------------------------|
G|--4--4----------6666666--------------------------------------------|
D|-------------------------------------------------------------------|
A|-------------------------------------------------------------------|
E|-------------------------------------------------------------------|

OUTRO/END OF SOLO:
E|------------------------------0-|
B|------------------------------0-|
G|----------8-6-----------------6-| FLANG EFFECT
D|-6666h999--6--6666-4~-6~-2~~~~6-|
A|------------------------------4-|
E|--------------------------------|

THE END! COMMENT AND TELL ME HOW I DID!!!! AND CORRECT ME! its my first tab so i need 
help bro's and hoes!
       |  |
       |  |
       | >                 Tabbed By Stephen Anderson o ya te he he
   \_________/

            
            
Suggest correction
Creating personal tab
Creating personal tab
You can edit any tab online and save it as your Personal.

You can edit, replace or remove any tab part or add personal notes – all changes will be seen only by you.

Personal tabs can be accessed anytime from any device, even offline.
Learn more »
comments
print report bad tab
3 comments total.
0 reply
OutrightChamp 10 Jan 01, 2009 06:44 PM

Wow, this is pretty spectacular if you ask me. (Not an expert guitarist :D)

0 reply
linghoejohnson9 1,076 Nov 02, 2009 08:36 AM

great : ] 5 stars. this site needs more 32 leaves tabs though /:

0 reply
Xyzo 20 Feb 11, 2010 10:43 AM

ummm... are there more versions of this song? because I find the tabbing of the second solo a bit off... even if you take a look at the official video of the song you can see that the guitarist plays around higher frets on nearly all the strings instead of moving around (mostly) one string, your tab of the solo makes it very uncomfortable to play + there are a few mistakes... im lazy (and busy) to point them out, but will do as soon as Ill have time

guest
You may want to rate the tab now too:
select rating
Wanna post a correction for this tab? Suggest correction