Oops, an error
Loading. Please wait.

Al Otro Lado Del Río tab

version 1
version 1

Whole song

Interactive

10,313 views 18 this week
no commentswrite comment
1 2 3 4 5
x 5
add to favorites
×
Save as Personal and add changes to this tab that will be seen only by you. Learn more ›
×
You can save this tab as Personal to edit and correct it or add notes. All changes will be seen only by you. Learn more »
launch autoscroll
font size
0
reset
how to read this tab
guitar tuner
edit
Autoscroll
slow
fast
+/-
esc
set tempo
stop
Difficulty
intermediate
                             al otro lado del río                               


guitarra
                                                                     
E||---------------------|---------------------|---------------------|
B||--0----------------0-|--2----------------2-|--0----------------0-|
G||--2--------------2---|--2---2----------2---|--2---2----------2---|
D||------0-0------0-----|---------------0-----|---------------0-----|
A||---------------------|---------------------|---------------------|
E||--3----------3-------|--3-----3----3-------|--3-----3----3-------|


                                                                
-------------------|---------------------|---------------------|
--2--------3---2---|--0----------------0-|--2----------------2-|
--2---2----2---2---|--2--------------2---|--2---2----------2---|
-------------------|------0--------0-----|---------------0-----|
-------------------|---------------------|---------------------|
--3-----3----------|--3-----3----3-------|--3-----3----3-------|


                                                                               
------------------|-----------0-------|-------------------|----------1--------|
--0---------------|---------------3---|----------4----4---|--3-------3----3---|
--2----------2----|--0----------------|--3------------3---|--2------------2---|
------0------2----|--2---2------------|--5---5------------|------1------------|
------------------|-------------------|--3----------------|-------------------|
--3-----3----2----|--0-----0----------|-------------3-----|--1----------1-----|


                                                                 
--------------------|---------------------|---------------------|
--5---5----4----4---|--0----------------0-|--2----------------2-|
--5---5----5----5---|--2--------------2---|--2---2----------2---|
--5---5----5----5---|------0-0------0-----|---------------0-----|
--0-----0-----0-----|---------------------|---------------------|
--------------------|--3----------3-------|--3-----3----3-------|


                                                                  
---------------------|---------------------|---------------------|
--0----------------0-|--2----------------2-|--0----------------0-|
--2---2----------2---|--2---2----------2---|--2--------------2---|
---------------0-----|---------------0-----|------0--------0-----|
---------------------|---------------------|---------------------|
--3-----3----3-------|--3-----3----3-------|--3-----3----3-------|


                                                             
---------------------|------------------|-----------0-------|
--2----------------2-|--0---------------|---------------3---|
--2---2----------2---|--2----------2----|--0----------------|
---------------0-----|------0------2----|--2---2------------|
---------------------|------------------|-------------------|
--3-----3----3-------|--3-----3----2----|--0-----0----------|


                                                             
-------------------|----------1--------|--------------------|
----------4----4---|--3-------3----3---|--5---5----4----4---|
--3---0--------3---|--2------------2---|--5---5----5----5---|
--5----------------|------1------------|--5---5----5----5---|
--3----------------|-------------------|--0-----0-----0-----|
-------------3-----|--1----------1-----|--------------------|


                                                                  
---------------------|---------------------|---------------------|
--0----------------0-|--2----------------2-|--0----------------0-|
--2--------------2---|--2---2----------2---|--2--------------2---|
------0-0------0-----|---------------0-----|------0--------0-----|
---------------------|---------------------|---------------------|
--3----------3-------|--3-----3----3-------|--3-----3----3-------|


                                                                                
--------------------|----------0-------|-----------2-------|-----------0-------|
-----------1--0-----|--0-----------0---|--3------------3---|--3------------3---|
--------2-----------|--0---0-----------|--2---2--------2---|--0---0------------|
-----3--------------|--2---------------|--4-----4----------|--2-----2----------|
-----------------3--|--3---------------|--2----------------|-------------------|
--3-----------3-----|------------------|-------------------|--0----------------|


                                                                              
------------------|-----------0-------|-------------------|------------------|
--3-------2-------|--1----------------|-----------3-------|--1---1---4---4---|
------0-------0---|------0--------0---|--5------------5---|--0---0---3---3---|
--2---------------|--2-----2----------|--4---4------------|--2---2---5---5---|
--0---------------|--0----------------|--5-----5----------|--0---0---3---3---|
------------------|-------------------|-------------------|------------------|


                                                                            
----------1--------|----------3--------|----------1--------|---------------|
--3-------3----3---|--4------------4---|--3-------3----3---|--0------------|
--2---2--------2---|--3---3--------3---|--2------------2---|--2------------|
--1----------------|--5----------------|--1---1------------|--0------------|
-------------------|--3----------3-----|-------------------|---------------|
--1----------1-----|-------------------|--1----------1-----|--3------------|


                                                                  
---------------------|---------------------|---------------------|
--0----------------0-|--2----------------2-|--0----------------0-|
--2--------------2---|--2---2----------2---|--2--------------2---|
------0--------0-----|---------------0-----|------0--------0-----|
---------------------|---------------------|---------------------|
--3-----3----3-------|--3-----3----3-------|--3-----3----3-------|


                                                                
-------------------|---------------------|---------------------|
--2---2----3---2---|--0----------------0-|--2----------------2-|
--2---2----2---2---|--2--------------2---|--2---2----------2---|
-------------------|------0--------0-----|---------------0-----|
-------------------|---------------------|---------------------|
--3-----3----------|--3-----3----3-------|--3-----3----3-------|


                                                                                
---------------------|-------------------|------------------|------------------|
--0----------------0-|--2---2----3---2---|------------------|------------------|
--2--------------2---|--2---2----2---2---|------------------|------------------|
------0--------0-----|-------------------|-----5-------5----|-----5-------5----|
---------------------|-------------------|------------------|------------------|
--3-----3----3-------|--3-----3----------|--3-----3---------|--3-----3---------|


                                                                           
------------------|---------------|-------------------|----------1--------|
------------------|---------------|----------4----4---|--3-------3----3---|
------------------|---------------|--3------------3---|--2------------2---|
-----5-------5----|--5------------|--5---5------------|------1------------|
------------------|---------------|--3----------------|-------------------|
--3-----3---------|--3------------|-------------3-----|--1----------1-----|


                                                                
--------------------|--------------------|---------------------|
--5---5----4----4---|--0---------------0-|--2----------------2-|
--5---5----5----5---|--2-------------2---|--2---2----------2---|
--5---5----5----5---|------0-------0-----|---------------0-----|
--0-----0-----0-----|--------------------|---------------------|
--------------------|--3---------3-------|--3-----3----3-------|


                                                               
---------------------|---------------------|------------------|
--0----------------0-|--2----------------2-|--0---------------|
--2---2----------2---|--2---2----------2---|--2---------2-----|
---------------0-----|---------------0-----|------0-----0-----|
---------------------|---------------------|------------------|
--3-----3----3-------|--3-----3----3-------|--3-----3---2-----|


                                                                
---------------------|--------------------|-----------0--------|
---------------4---7-|--------0--------0--|------0-------0-----|
--0----------4-------|------0-------0-----|--------0--------0--|
------2----4---------|--2--------0--------|--------------------|
--------6------------|--------------------|--4-----------------|
--0------------------|--------------------|--------------------|


                                                             
-------------------|----------1--------|--------------------|
----------4----4---|--3-------3----3---|--5---5----4----4---|
--3------------3---|--2------------2---|--5---5----5----5---|
--5---5------------|------1------------|--5---5----5----5---|
--3----------------|-------------------|--0-----0-----0-----|
-------------3-----|--1----------1-----|--------------------|


                                                                         
---------------------|----------------|----------------|----------------|
--0----------------0-|----------------|----------------|----------------|
--2--------------2---|----------------|----------------|----------------|
---------------0-----|-----------5----|-----------5----|-----------5----|
------0-0------------|----------------|----------------|----------------|
--3----------3-------|--3-------------|--3-------------|--3-------------|


                                                                    
----------------|----------------|----------------|----------------|
----------------|----------------|----------------|----------------|
----------------|----------------|----------------|----------------|
-----------5----|-----------5----|-----------5----|-----------5----|
----------------|----------------|----------------|----------------|
--3-------------|--3-------------|--3-------------|--3-------------|


                 
---------------||
---------------||
---------------||
---------------||
---------------||
--3------------||



Suggest correction
Creating personal tab
Creating personal tab
You can edit any tab online and save it as your Personal.

You can edit, replace or remove any tab part or add personal notes – all changes will be seen only by you.

Personal tabs can be accessed anytime from any device, even offline.
Learn more »
comments
print report bad tab
guest
Wanna post a correction for this tab? Suggest correction