Oops, an error
Loading. Please wait.

Promised Land tab

1,244 views 9 this week
no commentswrite comment
1 2 3 4 5
3 more votes to show rating
add to favorites
×
Save as Personal and add changes to this tab that will be seen only by you. Learn more ›
×
You can save this tab as Personal to edit and correct it or add notes. All changes will be seen only by you. Learn more »
launch autoscroll
font size
0
reset
how to read this tab
guitar tuner
edit
Autoscroll
slow
fast
+/-
esc
set tempo
stop
Author
Difficulty
----------------------------------------------------------------------------
                             Promised Land - Queensryche
----------------------------------------------------------------------------
Tabbed by: wilton
Email: teletubbies100@hotmail.com

Tuning: standard

intro:
guitar 1: clean
e|--------------------------------------------------------------------------|
B|--------------------------------------------------------------------------|
G|--------------------------------------------------------------------------|
D|--------------------------------------------------------------------------|
A|----4--6--4--6--------------4--6--4--6------------------------------------|
E|--------------------------------------------------------------------------|

guitar 2: clean
e|--------------------------------------------------------------------------|
B|--------------------------------------------------------------------------|
G|--------------------------------------------------------------------------|
D|--------------------------------------------------------------------------|
A|-------------5b6r5b6-~~---------------5b6r5b6-~~--------------------------|
E|--------------------------------------------------------------------------|

all guitars: clean                                    vol.swell
e|--------------------------------------------------------------------------|
B|--------------------------------------------------------------------------|
G|----------------------------------------------------6---------------------|
D|----------------------------------------------------6---------------------|
A|---4--6--4--6--4~----------4--6--4--6--4~-----------4---------------------|
E|--------------------------------------------------------------------------|

verse:
e|--------------------------------------------------------------------------|
B|--------------------------------------------------------------------------|
G|--------------------------------------------------------------------------|
D|--------------------------------------------------------------------------|
A|---4--6--4--6--4~----------4--6--4--6--4~-------4----2--------------------|
E|--------------------------------------------------------------------------|

guitar 2: dist
e|--------------------------------------------------------------------------|
B|--------------------------------------------------------------------------|
G|--------------------------------------------------------------15b17~~~----|
D|-----------------------------------------------------------15-------------|
A|--------------------------------------------------------------------------|
E|--------------------------------------------------------------------------|

e|--------------------------------------------------------------------------|
B|--------------------------------------------------------------------------|
G|--------------------------------------------------------------------------|
D|--------------------------------------------------------------------------|
A|---4----2-----------4---6~~------4--6--4--6~~~-----4---2------------------|
E|--------------------------------------------------------------------------|

guitar 2: dist
e|--------------------------------------------------------------------------|
B|--------------------------------------------------------------------------|
G|--------------------------------------------------------------15b17~~~----|
D|-----------------------------------------------------------15-------------|
A|--------------------------------------------------------------------------|
E|--------------------------------------------------------------------------|

e|--------------------------------------------------------------------------|
B|--------------------------------------------------------------------------|
G|--------------------------------------------------------------------------|
D|--------------------------------------------------------------------------|
A|---4----2-----------------------------------------------------------------|
E|--------------------------------------------------------------------------|

guitar 2:
e|---------------------------------------------------------------------------|
B|-------------16------------------------------------------------------------|
G|----------------16b18------------------------------------------------------|
D|---------------------------------------------------------------------------|
A|---------------------------------------------------------------------------|
E|---------------------------------------------------------------------------|

all guitars:
e|--------------------------------------------------------------------------|
B|--------------------------------------------------------------------------|
G|--------------------------------------------------------------------------|
D|--------------------------------------------------------------------------|
A|---------------------------------------0--2----2-/-4----5~~---------------|
E|--------------------------2--2-/-4----------------------------------------|
      dist.on
e|--------------------------------------------------------------------------|
B|--------------------------------------------------------------------------|
G|----8~-~---12---------------6---6--/---8--b--9-----12---------------------|
D|----x------x-----4~-~-~-----x---x------x-----------x------4~-~------------|
A|----6~-~---10----x----------4---4--/---6--b--7-----10-----x-------4----2--|
E|-----------------2~-~-~-----------------------------------2~-~------------|

e|--------------------------------------------------------------------------|
B|--------------------------------------------------------------------------|
G|------3~-~-------------------3~-~-----------------------------------------|
D|--x---x-----------------x----x--------------------------------------------|
A|--x---1~-~----4----2----x----1~-~-----------------------------------------|
E|--x---------------------x-------------------------------------------------|

guitar 1: dist
e|--------------------------------------------------------------16----------|
B|----------------------------------------17-b-19r----------17------15~~~---|
G|------------------------------------15------------------x-----------------|
D|-----------------------------------------------------x--------------------|
A|--------------------------------------------------------------------------|
E|--------------------------------------------------------------------------|

guitar 2: dist
e|--------------------------------------------------------------------------|
B|--------------------------------------------------------------16----------|
G|---------------------------------------17-b-19r-----------17------15~~~---|
D|-----------------------------------14-------------------x-----------------|
A|-----------------------------------------------------x--------------------|
E|--------------------------------------------------------------------------|

all guitars:
e|--------------------------------------------------------------------------|
B|--------------------------------------------------------------------------|
G|--------------------------------------------------------------------------|
D|--------------------------------------------------------------------------|
A|--4----6------4----6------4----2------------------4----2----2////---------|
E|--------------------------------------------------------------------------|

guitar 2: dist
e|--------------------------------------------------------------------------|
B|--------------------------------------------------------------------------|
G|-----------------------------------------15b17~~~-------------------------|
D|--------------------------------------15----------------------------------|
A|--------------------------------------------------------------------------|
E|--------------------------------------------------------------------------|

e|--------------------------------------------------------------------------|
B|--------------------------------------------------------------------------|
G|--------------------------------------------------------------------------|
D|--------------------------------------------------------------------------|
A|--4----6------4----6-------4-----2------------4-----2---------------------|
E|--------------------------------------------------------------------------|

guitar 2: dist
e|--------------------------------------------------------------------------|
B|---------------------------------------------------------16---------------|
G|----------------------------------------15b17~~~------------16b18---------|
D|-------------------------------------15-----------------------------------|
A|--------------------------------------------------------------------------|
E|--------------------------------------------------------------------------|

all guitars:
e|--------------------------------------------------------------------------|
B|--------------------------------------------------------------------------|
G|--------------------------------------------------------------------------|
D|--------------------------------------------------------------------------|
A|-------------0--2--4---5~~------------------------------------------------|
E|--2--2-/-4----------------------------------------------------------------|

chorus:
guitar 1: dist
e|--------------------------------------------------------------------------|
B|--------------------------------------------------------------------------|
G|--3---------------------------------------------4-------------------------|
D|--x---------------------------------------------x-------------------------|
A|--1---------------------------------------------2-------------------------|
E|--------------------------------------------------------------------------|
guitar 2: dist
e|--------------------------------------------------------------------------|
B|--------------------------------------------------------------------------|
G|--------------------------------------------------------------------------|
D|--------------------------------------------------------------------------|
A|--------------------------------------------------------------------------|
E|--4--6--4--6-b-7r6-----4--4--6-b-7r6-----4---4--6--6--4--6b7--------------|

gtr 1:
e|--------------------------------------------------------------------------|
B|--------------------------------------------------------------------------|
G|---------------------------3----------------------------------------------|
D|---------------------------x----------------------------------------------|
A|---------------------------1----------------------------------------------|
E|--------------------------------------------------------------------------|

gtr 2:
e|--------------------------------------------------------------------------|
B|--------------------------------------------------------------------------|
G|--------------------------------------------------------------------------|
D|--------------------------------------------------------------------------|
A|--------------------------------------------------------------------------|
E|---4--4---6-b-7r6----4-4-4-6--6--4--6-b-7r6----4--4--6-b-7r6--------------|

gtr 1:
e|--------------------------------------------------------------------------|
B|--------------------------------------------------------------------------|
G|------------4--------------------------------REPEAT-----------------------|
D|------------x-------------------------------------------------------------|
A|------------2-------------------------------------------------------------|
E|--------------------------------------------------------------------------|

gtr 2:
e|--------------------------------------------------------------------------|
B|--------------------------------------------------------------------------|
G|--------------------------------------------------REPEAT------------------|
D|--------------------------------------------------------------------------|
A|--------------------------------------------------------------------------|
E|--4--4--4--6--6--4--6-b-7-----4--4--6-b-7---------------------------------|

gtr 2 second time:
e|--------------------------------------------------------------------------|
B|--------------------------------------------------------------------------|
G|--------------------------------------------------------------------------|
D|--------------------------------------------------------------------------|
A|--------------------------------------------------------------------------|
E|---4--4--6-b-10-----------------------------------------------------------|

solo: gtr 1: dist w/ swirling effect
e|--------------------------------------------------------------------------|
B|----16~-------18b19r18---11--13~----13b15r13--10~---8--10b11r10---10--8~--|
G|----------16--------------------------------------------------------------|
D|--------------------------------------------------------------------------|
A|--------------------------------------------------------------------------|
E|--------------------------------------------------------------------------|rythm: gtr 
clean w/ chorus
e|--------------------------------------------------------------------------|
B|----------5--------5------------------------------------------------------|
G|-------4-------4-----------------------1-----1----------------------------|
D|----2-------------------------------1-----1-----------4----4--------------|
A|--------------------------------3-------------------2----2----------------|
E|-----------------------------4--------------------0-----------------------|

e|--------------------------------------------------------------------------|
B|--8b10r8---7~---5---7~------15b17---15p13-15~---13-15b17-15-13------------|
G|--------------------------------------------------------------------------|
D|--------------------------------------------------------------------------|
A|--------------------------------------------------------------------------|
E|--------------------------------------------------------------------------|

e|--------------------------------------------------------------------------|
B|--------5------5-----------4-----4------------2--2------------------------|
G|------4----4-------------------------------0------------------------------|
D|----2------------------2------2---------2---------------------------------|
A|--2------------------0----------------0-----------------------------------|
E|--------------------------------------------------------------------------|

e|--------------------------------------------------------------------------|
B|---11b13~---11b13r11---11>12----------------------------------------------|
G|------------------------------12------------------------------------------|
D|----------------------------------13~~~-----------------------------------|
A|--------------------------------------------------------------------------|
E|--------------------------------------------------------------------------|

e|--------------------------------------------------------------------------|
B|----------------0----------0----------------------------------------------|
G|--------------------------------------------------------------------------|
D|-----------2--------2-----------------------------------------------------|
A|------0---------------------------2---------------------------------------|
E|----------------------------------0---------------------------------------|

repeat verse:
chorus music: is played for outro until fade out.

A brill song by Queensryche....more to come from me next time

| r  release bend
| >  trill
| b  bend note
| /  slide up
| \  slide down
| h  hammer-on
| p  pull-off
| ~  vibrato
| +  harmonic
| x  Mute note
===============================================================================
Suggest correction
Creating personal tab
Creating personal tab
You can edit any tab online and save it as your Personal.

You can edit, replace or remove any tab part or add personal notes – all changes will be seen only by you.

Personal tabs can be accessed anytime from any device, even offline.
Learn more »
Give kudos to tab author, rate the tab!
1 2 3 4 5
comments
print report bad tab
guest
You may want to rate the tab now too:
select rating
Wanna post a correction for this tab? Suggest correction