Oops, an error
Loading. Please wait.

Ulan tab

version 4
version 4

Whole song

Interactive

by Cueshé
15,324 views 54 this week
1 commentread comment
1 2 3 4 5
x 15
add to favorites
×
Save as Personal and add changes to this tab that will be seen only by you. Learn more ›
×
You can save this tab as Personal to edit and correct it or add notes. All changes will be seen only by you. Learn more »
launch autoscroll
font size
0
reset
how to read this tab
guitar tuner
edit
Autoscroll
slow
fast
+/-
esc
set tempo
stop
Author
Difficulty
Unregistered
intermediate
----------------------------------------------------------------------------
                            Ulan - Cueshe
----------------------------------------------------------------------------

Tuning: standard



INTRO:
e|-------------------------------------------------------------------------|
B|-------------------------------------------------------------------------|
G|---------8---------------------------------------------------------------|
D|-9-------8-(8x)-----6-------2--------------------------------------------|
A|-9-(6x)--6----------6-(6x)--2--------------------------------------------|
E|-7------------------4-------0--------------------------------------------|
 
VERSE:
B                F#
lagi nalang umuulan 
B                F#
parang walang katapusan

E2 ung power chords sa verse starting sa tulad ng paghihirap.....

e|-------------------------------------------------------------------------|
B|-------------------------------------------------------------------------|
G|-6------9---------------------8------------------------------------------|
D|-6-(8x)-9--(8x)--9------------8--(8x)--6---------5--------9--------4-----|
A|-4------7--------9--(8x)------6--------6-(8x)----5-(8x)---9-(8x)---4-(8x)|
E|-----------------7---------------------4---------3--------7--------2-----|

REPEAT (INTRO)
REPEAT (VERSE)
then after verse i2 na:
e|-------------------------------------------------------------------------|
B|-------------------------------------------------------------------------|
G|-------------------------------------------------------------------------|
D|----9---------4------2---------------------------------------------------|
A|----9-(8x)----4-(5x)-2--(2x)---------------------------------------------|
E|----7---------2------0---------------------------------------------------|

CHORUS:

e|-------------------------------------------------------------------------|
B|-------------------------------------------------------------------------|
G|--------8----------------6--------9--------------------------------------|
D|--9-----8-(8x)--6--------6--(16x)-9-(8x)-9-------4-------2---------------|
A|--9-(8x)6-------6--(8x)--4--------7------9-(8x)--4--(5x)-2--(2x)---------|
E|--7-------------4------------------------7-------2-------0---------------|

e|-------------------------------------------------------------------------|
B|-------------------------------------------------------------------------|
G|--------8----------------6--------9--------------------------------------|
D|--9-----8-(8x)--6--------6--(16x)-9-(8x)-9-------------------------------|
A|--9-(8x)6-------6--(8x)--4--------7------9-(8x)--------------------------|
E|--7-------------4------------------------7-------------------------------|

SOLO MID PART:
                                                            ( ung 9 tremolo)
e|--11-11-11-11-11-9---11--11-11-11-11-9------16--19-16--19-9--------------
B|---------------------------------------12--------------------------------|
G|-------------------------------------------------------------------------|
D|-------------------------------------------------------------------------|
A|-------------------------------------------------------------------------|
E|-------------------------------------------------------------------------|
                                      
e|-9-12-14-12-14----14-12-11-9---------------------------------------------|
B|-----------------------------12-11-12----9-12------12-------12-----12----|
G|------------------------------------------------11-------9-------8-------|
D|---------------------------------------9------9--------9-------9---------|
A|-------------------------------------------------------------------------|
E|-------------------------------------------------------------------------|

e|-------------------------------------------------------------------------|
B|--------12-----12---------12~--------------------------------------------|
G|-------------8-------9---------------------------------------------------|
D|--9--11----9-------9---9-------------------------------------------------|
A|-------------------------------------------------------------------------|
E|-------------------------------------------------------------------------|


 POWER CHORDS FOR 1ST SOLO MIDDLE PART:
e|-------------------------------------------------------------------------|
B|-------------------------------------------------------------------------|
G|----------8---8888888----------6-666666666666666------------4------------|
D|-999999---8---8888888--666666--6-666666666666666--44444444--4------------|
A|-999999---6---6666666--666666--4-444444444444444--44444444--2------------|
E|-777777----------------444444---------------------22222222---------------|

THEN AFTER NG SOLO, MAY PIANO SOLO DEN... I2 NAMAN NEXT VERSE ULIT

TULAD NG PAGHIHIRAP...
e|-------------------------------------------------------------------------|
B|-------------------------------------------------------------------------|
G|-6------9---------------------8------------------------------------------|
D|-6-(8x)-9--(8x)--9------------8--(8x)--6---------5--------9--------4-----|
A|-4------7--------9--(8x)------6--------6-(8x)----5-(8x)---9-(8x)---4-(8x)|
E|-----------------7---------------------4---------3--------7--------2-----|

e|-------------------------------------------------------------------------|
B|-------------------------------------------------------------------------|
G|-------------------------------------------------------------------------|
D|----9---------4------2---------------------------------------------------|
A|----9-(8x)----4-(5x)-2--(2x)---------------------------------------------|
E|----7---------2------0---------------------------------------------------|

REPEAT (CHORUS)

after chorus may extension kaunti...

ako....
e|-------------------------------------------------------------------------|
B|-------------------------------------------------------------------------|
G|-------------------------------------------------------------------------|
D|----4------2-------------------------------------------------------------|
A|----4-(5x)-2--(2x)-------------------------------------------------------|
E|----2------0-------------------------------------------------------------|

tapos i2:

lalalala lala lalalala lala lala lalala
e|-------------------------------------------------------------------------|
B|-------------------------------------------------------------------------|
G|-------------------------------------------------------------------------|
D|--9999-4444-6666-4444-7777-2222-99999999---------------------------------|
A|--9999-4444-6666-4444-7777-2222-77777777---------------------------------|
E|--7777-2222-4444-2222-5555-0000-77777777---------------------------------|

e|-------------------------------------------------------------------------|
B|-------------------------------------------------------------------------|
G|-------------------------------------------------------------------------|
D|--9999-4444-6666-4444-7777-2222-99999999---------------------------------|
A|--9999-4444-6666-4444-7777-2222-77777777---------------------------------|
E|--7777-2222-4444-2222-5555-0000-77777777---------------------------------|


SOLO outro
e|--------------------11--------------------------------------4-5-7-0------|
B|-------------------------4-4-----4--------------------4-5-7---------4-2-0|
G|---------4-----4h6-----------------6-4---4--------4-6--------------------|
D|----4h6-----6--------------------------6----6-4--------------------------|
A|-------------------------------------------------------------------------|
E|-------------------------------------------------------------------------|

e|--2-0-----------------------7-6-4---------------------4-7--9-7---11-7----|
B|-------4-2--2h4-2-----------------7-5-4-----------4-7----------9------9--|
G|------------------4-1-------------------------4h6------------------------|
D|----------------------4-------------------4h6----------------------------|
A|-------------------------------------------------------------------------|
E|-------------------------------------------------------------------------|

e|-9-7----11-7---12-7-----11-7---9-7---11-7----9-7-------------------------|
B|------9------9-------9-------9-----9-------9-----9-7----------7h9-7-9-8-6|
G|-----------------------------------------------------9-8-6h9-------------|
D|-------------------------------------------------------------------------|
A|-------------------------------------------------------------------------|
E|-------------------------------------------------------------------------|

e|-------------------------------------------------------------------------|
B|-------------------------------------------------------------------------|
G|-------------------------------------------------------------------------|
D|-9----------------------------------9------------------------------------|
A|-9----------------------------9h11--9--9-7-------------------------------|
E|--------------------------------------------11--7------------------------|
CHORDS FOR SOLO PARTS

CHORDS FOR OUTTRO:
e|-------------------------------------------------------------------------|
B|-------------------------------------------------------------------------|
G|-------------------------------------------------------------------------|
D|--9999-4444-6666-4444-7777-2222-99999999---------------------------------|
A|--9999-4444-6666-4444-7777-2222-77777777---------------------------------|
E|--7777-2222-4444-2222-5555-0000-77777777---------------------------------|

e|-------------------------------------------------------------------------|
B|-------------------------------------------------------------------------|
G|-------------------------------------------------------------------------|
D|--9999-4444-6666-4444-7777-2222-9----------------------------------------|
A|--9999-4444-6666-4444-7777-2222-7----------------------------------------|
E|--7777-2222-4444-2222-5555-0000-7--------------------------------------|  

slide up
| \  slide down
| h  hammer-on
| p  pull-off
| ~  vibrato
| +  harmonic
| x  Mute note
Suggest correction
Creating personal tab
Creating personal tab
You can edit any tab online and save it as your Personal.

You can edit, replace or remove any tab part or add personal notes – all changes will be seen only by you.

Personal tabs can be accessed anytime from any device, even offline.
Learn more »
comments
print report bad tab
1 comment total.
0 reply
tabrate99 10 May 18, 2006 02:49 AM

my tapping po yung sa mid part
sori pero dami pong mali eh... peace.

guest
Wanna post a correction for this tab? Suggest correction