Oops, an error
Loading. Please wait.

Omarm tab

version 1
version 1

Whole song

Interactive

by BLØF
19,317 views 48 this week
7 commentsread comments
1 2 3 4 5
x 7
add to favorites
×
Save as Personal and add changes to this tab that will be seen only by you. Learn more ›
×
You can save this tab as Personal to edit and correct it or add notes. All changes will be seen only by you. Learn more »
launch autoscroll
font size
0
reset
how to read this tab
guitar tuner
edit
Autoscroll
slow
fast
+/-
esc
set tempo
stop
Difficulty
intermediate
Title     : Omarm
Artist    : Blof
Album     : Omarm
Capo      : none
Setting   : E-A-D-G-B-E
Tabbed by : Martijn Gijselaar
-------------------------------------------------

Gebruikte accoorden:

D      xx0232
Dm/F   1x0231
G      320003
Bb     113331
A      002220
G/F#   220003
C      032010
Bm/E   024432
Bm/G   324432
A/C#   x42220
Bm     224432
Em     022000

 Intro
 E-|----------0-------|
 B-|------3-----3---3-|
 G-|----2---2-----2---|
 D-|--0---------------|
 A-|------------------|
 E-|------------------|
           4x

 Couplet
 E------------0------------------0------------------0------------------------|
 B--------3-----3---3--------3-----3---3--------3-----3---3-----3----3p2-----|
 G------2---2-----2--------2---2-----2--------2---2-----2----------------2---|
 D----0------------------0------------------0--------------------------------|
 A-----------------------------------------------------------1-----0---------|
 E---------------------1------------------3----------------------------------|
           Hoe         ver     je      gaat    heeft   met   afstand niets

 E-----------0------------------0------------------0-------------------------|
 B-------3-----3---3--------3-----3---3--------3-----3---3-----3----3p2------|
 G-----2---2-----2--------2---2-----2--------2---2-----2---------------------|
 D---0------------------0------------------0---------------------------------|
 A----------------------------------------------------------1-----0----------|
 E--------------------1------------------3-----------------------------------|
  te maken.           Hoogstens  met de  tijd

 E---------------------------------------------------------------------------|
 B--------3-2------3-2------3-2------3-2------3-2------3-2------3-2----------|
 G------2-----2--2-----2--2-----2--2-----2--2-----2--2-----2--2-----2--------|
 D---------------------------------------------------------------------------|
 A---------------------------------------------------------------------------|
 E---------------------------------------------------------------------------|
  En ik weet niet hoe het komt ... wil. ... treft .. zuiver.. houdt

 E---------------------------------------------------------------------------|
 B-----3-2-------3-------3-------3-------3-----------------------------------|
 G---2-----2---2---2---2---2---2---2---2---2---------------------------------|
 D---------------------------------------------------------------------------|
 A---------------------------------------------------------------------------|
 E---------------------------------------------------------------------------|
  .. stand. ...sta...  ...     hand


 Refrein
 E-|---------0-----------------0----------------7-----------------7----------|
 B-|-----3-----3---3-------3-----3--3---------7---7---7---------7---7---7----|
 G-|---2---2-----2-------2---2-----2--------9-------9---------9-------9------|
 D-|-0-----------------0------------------9-----------------9----------------|
 A-|------------------------------------7-----------------7------------------|
 E-|-------------------------------------------------------------------------|
      Lie...                ...f ga nou mee                             en

 E------------0--------------------------|-----------------------------------|
 B--------------0--------0h2h3------3----|--------3--------3----------3------|
 G-------4--------4------------0------2--|--------------------2----------2---|
 D-----4----4-------4--------------------|-----0---------0---------0---------|
 A---2----------------------------3------|-----------------------------------|
 E----------------------1----------------|-----------------------------------|
   Omarm      me,     omarm me, omarm me.  En breng me nergens heen

 E------------|
 B-----3------|
 G--------2---|
 D--0---------|
 A------------|
 E------------|


[COUPLET 1]
D Dm/F G
Hoe ver je gaat
Bb A D
Heeft met afstand niets te maken
Dm/F G Bb A
Hoogstens met de tijd
Bm G
En ik weet niet hoe het komt
G
Dat ik weg wil
Bm
Maar het treft me hard en zuiver
G G/F#
En het houdt hardnekkig stand
C
Dus hier sta ik
C
Met een uitgestoken hand

[REFREIN]
D Bm/E
Lief, ga dan mee
Bm/G
Omarm me
Bm A/C#
Omarm me, omarm me
D Bm/E
Lief, ga dan mee
Bm/G
Omarm me
Bm A/C#
Omarm me, omarm me
C
En breng me nergens heen

[COULPET 2]
D Dm/F G
Hoe diep je gaat
Bb A D
Heeft met denken niets te maken
Dm/F G Bb A
Hoogstens met een wil
Bm G
En het voelt alsof ik weet
G
Waar ik heenga
Bm
Het leidt me in het donker
G G/F#
En het spot met mijn verstand
C
Hier sta ik
C
Met mijn uitgestoken hand

[REFREIN]

[BRIDGE]
Em - A
Em - A
C

[REFREIN]
Lief, ga dan mee
Omarm mijn lijf en leden
Omarm mijn waanideeën
Omarm me, omarm me
Lief, ga dan mee
Omarm heel mijn verleden
Omarm mijn zeven zeeën
Omarm me, omarm me
En breng me nergens heen

[OUTTRO]
D Dm/F G
Hoe recht je staat
Bb A D
Heeft met zwaarte niets te maken
D Dm/F G
Hoogstens met de wind
Bb A

            
            
Suggest correction
Creating personal tab
Creating personal tab
You can edit any tab online and save it as your Personal.

You can edit, replace or remove any tab part or add personal notes – all changes will be seen only by you.

Personal tabs can be accessed anytime from any device, even offline.
Learn more »
comments
print report bad tab
7 comments total. Showing first comments.
0 reply
valhelm 22 Sep 23, 2013 11:51 PM

Als je het nummer luistert klinkt het alsof ze dit spelen:
Intro
E-|----------0-------|
B-|------3-------3---|
G-|----2---2---2---2-|
D-|--0---------------|
A-|------------------|
E-|------------------|
4x
ipv
Intro
E-|----------0-------|
B-|------3-----3---3-|
G-|----2---2-----2---|
D-|--0---------------|
A-|------------------|
E-|------------------|
4x

0 reply
Falxhor 114 Nov 04, 2013 07:36 AM

There we go:

Intro
E|----------0-------|
B|------3-------3---|
G|----2---2---2---2-| x4
D|--0---------------|
A|------------------|
E|------------------|


Verse

E------------0--------------0-----------------0----------------------------|
B--------3-------3------3-------3---------3-------3----------3-------3p2---|
G------2---2---2------2---2---2---2-----2---2---2---2------2---2---2-----2-|
D----0---------------------------------------------------------------------|
A--------------------------------------------------------1-------0---------|
E-------------------1-----------------3------------------------------------|


E------------0---------------0------------------0--------------------------|
B--------3-----3---3-----3-----3---3--------3-----3---3------3------3p2----|
G------2---2-----2-----2---2-----2--------2---2-----2------2---2--------2--|
D----0---------------------------------------------------------------------|
A--------------------------------------------------------1--------0--------|
E--------------------1------------------3----------------------------------|

E------------------------------------------------------------------------|
B--------3---2------------3---2------------3---2------------3---2--------|
G------4---4---4---2----4---4---4---2----4---4---4---4----4---4---4---4--|
D----------------4----------------4----------------4----------------4----|
A----2----------------2-------0------------------------------------------|
E--------------------------------------3----------------2----------------|

E------------------------------------------------------------------------|
B--------3---2------------3---2------------3---2------------3---2--------|
G------4---4---4---2----4---4---4---2----4---4---4---4----4---4---4---4--|
D----------------4----------------4----------------4----------------4----|
A----2----------------2-------0------------------------------------------|
E--------------------------------------3----------------3----------------|

Pre-chorus

E-------------------------------------------------------------------|
B---------3-------------3--------------3--------------3-------------|
G-------------0~------------0~-------------0~-------------0~--------|
D-------2---2---------2---2----------2---2----------2---2-----------|
A----3--------------3--------------3--------------3-----------------|
E-------------------------------------------------------------------|

Chorus

E----------0-----------------0-----------------7----------------7--------|
B------3-------3---------3-------3---------7-------7--------7-------7----|
G----2---2---2---2-----2---2---2---2-----9---9---9---9----9---9---9---9--|
D--0-----------------0---------------------------------------------------|
A--------------------------------------7----------------7----------------|
E------------------------------------------------------------------------|

E---------------0------------------------------------5----
B---------0-----------0-----------2h3p2----------3--------
G-------0---0-------0---0-------4-------4------2---2------
D-----4-------4---4-------4---4-----------4---------------
A---2-----------------------2----------------4------------
E---------------------------------------------------------

E-------------------------------------------------------------------|
B---------3-------------3--------------3--------------3-------------|
G-------------0~------------0~-------------0~-------------0~--------|
D-------2---2---------2---2----------2---2----------2---2-----------|
A----3--------------3--------------3--------------3-----------------|
E-------------------------------------------------------------------|

guest
Wanna post a correction for this tab? Suggest correction