Oops, an error
Loading. Please wait.

Just Got Started bass

by 360
2,244 views 1 this week
no commentswrite comment
1 2 3 4 5
x 4
add to favorites
×
Save as Personal and add changes to this tab that will be seen only by you. Learn more ›
×
You can save this tab as Personal to edit and correct it or add notes. All changes will be seen only by you. Learn more »
launch autoscroll
font size
0
reset
guitar tuner
edit
Autoscroll
slow
fast
+/-
esc
set tempo
stop
Author
Difficulty
Just Got Started – 360 ft. Pez (http://360music.com.au/)
----------------------------------------------------------------------------
Tabbed By: mrb3nbass
E-mail: mrb3nbass@gmail.com

Hey guys this is a really cool bass line to play, I think I tabbed it out pretty well 
but if you have any questions, comments or improvements just leave a comment or send me an email.

Tuning: Standard EADG

Intro: x1
G|--------------------------------------------------------------------------|
D|---------------------------------679----------------------42--------------|
A|-99-75-54-44—2202-/4--2202-/--99-----7--55-44-2202-/4-2202--4-------------|
E|--------------------------------------------------------------------------|

Verse: x2
G|--------------------------------------------------------------------------|
D|---------------------------------679----------------------42--------------|
A|-99-75-54-44—2202-/4--2202-/--99-----7--55-44-2202-/4-2202---4------------|
E|--------------------------------------------------------------------------|

4th Time
G|--------------------------------------------------------------------------|
D|----679----------------------42-------------------------------------------|
A|-99------7-55-44-2202-/4-2202--4------------------------------------------|
E|--------------------------------------------------------------------------|

Chorus:

   S P S P S P         S P S P S P
G|---7---4---------------7---4----------------------------------------------|
D|-----------4-------------------4------------------------------------------|
A|-5---2-----------/7--5---2------------------------------------------------|
E|---------2----22-------------2---45420------------------------------------|

   S P S P S P         S P S P S P
G|---7---4---------------7---4----------------------------------------------|
D|-----------4-------------------4------------------------------------------|
A|-5---2-----------/7--5---2----------7-------------------------------------|
E|---------2----22-------------2---454--------------------------------------|

Verse: (careful of the stops and starts)

G|--------------------------------------------------------------------------|
D|---------------------------------679--------------------------------------|
A|-99-75-55-----202-/4--2202-/--99-----7-55-44-2202-/4-2202-----------------|
E|--------------------------------------------------------------------------|

G|--------------------------------------------------------------------------|
D|---------------------------------679---------------------42---------------|
A|-99-75-54-44—2202-/4--2202-/--99-----7-55-44-2202-/4-2202--4--------------|
E|--------------------------------------------------------------------------|

G|--------------------------------------------------------------------------|
D|--------------------------42----------------------------------------------|
A|-------------2202-/4--2202--4---------------------------------------------|
E|--------------------------------------------------------------------------|

Chorus:

   S P S P S P         S P S P S P
G|---7---4---------------7---4----------------------------------------------|
D|-----------4-------------------4------------------------------------------|
A|-5---2-----------/7--5---2------------------------------------------------|
E|---------2----22-------------2---45420------------------------------------|

   S P S P S P         S P S P S P
G|---7---4---------------7---4----------------------------------------------|
D|-----------4-------------------4------------------------------------------|
A|-5---2-----------/7--5---2----------7-------------------------------------|
E|---------2----22-------------2---454--------------------------------------|

Bridge: x4 (this part may be played in drop D, but it's the same notes)
G|--------------------------------------------------------------------------|
D|--------------------------------------------------------------------------|
A|-5---7---9----------------------------------------------------------------|
E|--------------------------------------------------------------------------|

Rest: 3Bars

4th Time:

G|--------------------------------------------------------------------------|
D|--------------42----------------------------------------------------------|
A|-5---79--12\----2---------------------------------------------------------|
E|--------------------------------------------------------------------------|

Chorus:

   S P S P S P         S P S P S P
G|---7---4---------------7---4----------------------------------------------|
D|-----------4-------------------4------------------------------------------|
A|-5---2-----------/7--5---2------------------------------------------------|
E|---------2----22-------------2---45420------------------------------------|

   S P S P S P         S P S P S P
G|---7---4---------------7---4----------------------------------------------|
D|-----------4-------------------4------------------------------------------|
A|-5---2-----------/7--5---2----------7-------------------------------------|
E|---------2----22-------------2---454--------------------------------------|
       S P S P         S P S P S P
G|-------4---------------7---4----------------------------------------------|
D|-----------4-------------------4------------------------------------------|
A|-----2----------/7---5---2------------------------------------------------|
E|---------2---22--------------2---45420------------------------------------|
   S P S P S P         S P S P S P
G|---7---4---------------7---4----------------------------------------------|
D|-----------4-------------------4------------------------------------------|
A|-5---2-----------/7--5---2------------------------------------------------|
E|---------2----22-------------2--------------------------------------------|

THE END :P


| S  slap
| P  pop
| /  slide up
| \  slide down
| h  hammer-on
| p  pull-off
| ~  vibrato
| +  harmonic
| x  Mute note
=============================================================================

            
            
Suggest correction
Creating personal tab
Creating personal tab
You can edit any tab online and save it as your Personal.

You can edit, replace or remove any tab part or add personal notes – all changes will be seen only by you.

Personal tabs can be accessed anytime from any device, even offline.
Learn more »
comments
print report bad tab
guest
You may want to rate the tab now too:
select rating
Wanna post a correction for this tab? Suggest correction