Oops, an error
Loading. Please wait.

Untitled 8 Popplagio tab

version 2
version 2

Whole song

Interactive

21,466 views 30 this week
9 commentsread comments
1 2 3 4 5
x 11
add to favorites
×
Save as Personal and add changes to this tab that will be seen only by you. Learn more ›
×
You can save this tab as Personal to edit and correct it or add notes. All changes will be seen only by you. Learn more »
launch autoscroll
font size
0
reset
how to read this tab
guitar tuner
edit
Autoscroll
slow
fast
+/-
esc
set tempo
stop
Author
Difficulty
-------------------------------------------------------------------------------
			     Untitled #8 - Sigur Ros
-------------------------------------------------------------------------------
Tabbed by: Matt Millar
Email: Zeparanoid@hotmail.com

Tuning: Standard
Note: Jonsi (guitar 2) plays this song with a bow. I will tab this part as is played with an e-bow.

       (begin with main riff)
     E ------------------------------------------------------------------------------------|
     B ------------------------------------------------------------------------------------|
G1   G -------------0-------------0---------------0-----------0-------------0-------0------|
     D ---------0-----0-------0-----------0---------------0-----0-------0---------------0--| (repeat)
     A -3-/-5-----5-------5-----5---5-/-9---9-/-10---7-----7-------7-----7---7-/-10--9-----|
     E ------------------------------------------------------------------------------------|

	(0:06)  play lightly
     E --------------------------------------------------|
     B --------------------------------------------------|
G2   G --------------------------------------------------|
     D --------------------------------------------------| (repeat)
     A --------------------------------------------------|
     E -----15---///-17--\\\-14--------///-17--\\\-------|


	(0:41) play hard
     E -----------------------------------------------------------------------|
     B -----------------------------------------------------------------------|
G2   G -----------------------------------------------------------------------|
     D -----------------------------------------------------------------------| (repeat)
     A -----------------------------------------------------------------------|
     E -----///-----19---\\\-15------///-19------\\\---14------///---15-------|

	 (1:22) play lightly
     E -------------------------------------------------------------------------------------------|
     B -------------------------------------------------------------------------------------------|
G2   G -------------------------------------------------------------------------------------------|
     D -------------------------------------------------------------------------------------------|
     A -------------------------------------------------------------------------------------------|
     E ----17-----------15-----//--17---\\--14------15---17----15--------14------15---17--\---12--|

(repeat main riff)

	(2:35)         (2:39)
     E -----------------------------------------------------------------------|
     B -----------------------------------------------------------------------|
G2   G -----------------------------------------------------------------------|
     D -----------------------------------------------------------------------|
     A -----------------------------------------------------------------------|
     E ---10--------8-----7-----8------7-------5------------------------------|

	(2:39)
     E ----------------------------------------------|
     B ---------------3------------------------------|
G1   G ---------0---------0---------0----------------|
     D -----2-----2---------2---2-----2--------------|
     A -3-----3-----3---------3---3------------------|
     E ----------------------------------------------|
 						     | x2
	(2:45)					     |
     E ----------------------------------------------|
     B ----------------------------------------------|
G1   G ---------0------------0-----------------------|
     D -----0-----0------0-----------0-------0-------|
     A -2-----2------2-----2---2-/-3---3-/-5---------|
     E ----------------------------------------------|

	(3:04)
     E ----------------------------------3--------|
     B ----------------------------------3--------|
G1   G ---------0-------------0---0------0--------|
     D -----2-----2-------2-----------0--0--------|
     A -0-----0-------0-----0---3---2----2--------|
     E ----------------------------------3--------|

	(3:12) play very hard
     E ------------------------------|
     B ------------------------------|
G2   G ------------------------------|
     D ------------------------------|
     A ------------------------------|
     E ----///--15-------------------|


	(3:12)
     E -3-------------------------------0-----------------|
     B ---3-----------------------3-------3---------------|
G1   G -----0---------------0---------0-----0-----0-------|
     D -----------------2-----2---------------2-----------|
     A -------2-2-/-3-----3-----3---------------3---------|
     E ---------------------------------------------------|

	(3:20) play lightly
     E ------------------------------------|
     B ------------------------------------|
G2   G ------------------------------------|
     D ------------------------------------|
     A ------------------------------------|
     E ---14------/---15-------------------|

	(3:20)
     E ------------------------------------------|
     B ------------------------------------------|
G1   G -------------0------------0---0-----------|
     D ---------4-----4------4-----4---4---------|
     A -3-/-5-----5-------5----5---------5-------|
     E ------------------------------------------|

	(3:27)
     E ------------------------------------------|
     B ------------------------------------------|
G1   G -------------7-------------0------0-------|
     D ---------5-----5-------2------2-----------|
     A -5-/-7-----7-----7-5-3---3------3---------|
     E ------------------------------------------|

Guitar 1: (back to main riff, repeat all)

	(3:30) play lightly
     E ----------------------------------------|
     B ----------------------------------------|
G2   G ---12---/--11------12----/-14-----------|
     D ----------------------------------------|
     A ----------------------------------------|
     E ----------------------------------------|

	(3:42) play very hard
     E ------------------------------------------------------|
     B ------------------------------------------------------|
G2   G ---///-16---\\---12-------//-16---\\\--11-------------| (repeat)
     D ------------------------------------------------------|
     A ------------------------------------------------------|
     E ------------------------------------------------------|

	(4:04)
     E -------------------------|
     B -------------------------|
G2   G ---///-16----------------|
     D -------------------------|
     A -------------------------|
     E -------------------------|

	(verse)


	(5:53)
     E ----------------------------------------|
     B ----------------------------------------|
G1   G -------------0------------0-------------|
     D ---------0-----0------0-----0---0-------|
     A -3-/-5-----5-------5----5-----5---------|
     E ----------------------------------------|

	(5:53)
     E ---------------------------------|
     B ---------------------------------|
G2   G ---12---/--11------12------------|
     D ---------------------------------|
     A ---------------------------------|
     E ---------------------------------|

	(5:59)
     E ----------------------------------0-------|
     B ----------------------------------0-------|
G1   G ---------0-----------0------------0-------|
     D -----2-----2----------------0-----2-------|
     A -3-----3---------3--------2---2---2-------|
     E ----------------------------------0-------|

	(6:03)
     E ---------------------------------|
     B ---------------------------------|
G2   G ---12---/--11----\\\-------------|
     D -----------------\\\-------------| (lots of feedback)
     A -----------------\\\-------------|
     E -----------------\\\----0--------|

(Guitar 1: Switch to light distortion)
(Guitar 2: Lowered volume, finger picked [i like to use e-bow])


   (6:20)
   E---------------------------------|
   B---------------------------------|
   G------------------------------16-|
G2 D---------------------------------| (repeat until 9:51)
   A-12--------15---------14---------|
   E---------------------------------|

   (6:49)
   E---------------------------------|
   B---------------------------------|
   G---------------------------------|
G1 D---------------------------------|
   A-7-7-7-7-7-7-7-7-7-7-7-7-7-7-7-7-|
   E-0-0-0-0-0-0-0-0-0-0-0-0-0-0-0-0-|

(Repeat above)

(Guitar 2 Continues)

	(7:37)
         E ------------------------------------------|
         B ------------------------------------------|
         G ------------------------------------------|
G1       D ------------------------------------------|
         A -7---7-7---7-7---7-7---7-7-7-7-\----------|
         E ------------------------------------------|

------------------------------------------------------------|
         E -------------------------------------------------|
         B -------------------------------------------------|
G1       G -------------------------------------------------|
         D -------------------------------------------------|
         A -10---10-10---10-10---10---10-10-10-10-xx--------|
         E -------------------------------------------------|

         E ------------------------------------------|
         B ------------------------------------------|
G1       G ------------------------------------------|
         D ------------------------------------------|
         A -9---9-9---9-9---9---9-9-9-9-/------------|
         E ------------------------------------------|

         E ------------------------------------------|
         B ------------------------------------------|
         G ------------------------------------------|
G1       D ------------------------------------------|
         A -7---7-9---7-7---7-7-7-9-7-7-\------------|
         E ------------------------------------------|

         E ------------------------------------------|
         B ------------------------------------------|
G1       G ------------------------------------------|
         D ------------------------------------------|
         A -10---10-10---10-10---10---10-10-10-10-xx-|
         E ------------------------------------------|

-----------------------------------------------------------

(Repeat Above Section, with increasing distortion)
(End with first bar)


(Guitar 1: Switch to heavy distortion)
(Guitar 2 continues)

	(9:26)
         E--------------------------------|
         B--------------------------------|
         G-9-9-9---9999---x-x-x-9-x-x-xxx-|
G1       D-9-9-9---9999---x-x-x-9-x-x-xxx-| (x 8)
         A-7-7-7---7777---x-x-x-7-x-x-xxx-|
         E-0-0-0---0000---x-x-x-0-x-x-xxx-|

(Guitar 1: Switch to light distortion)

	(9:51)
         E----------------------------------------|
         B----------------------------------------|
         G-9-9-9---9999---x-x-x-9-x-x-xxx---------|
G1       D-9-9-9---9999---x-x-x-9-x-x-xxx---------| (x 6)
         A-7-7-7---7777---x-x-x-7-x-x-xxx---------|
         E-0-0-0---0000---x-x-x-0-x-x-xxx---------|

        (9:51)
         E----------------------------------------|
         B----------------------------------------|
         G----------------------------------------|
G2       D----------------------------------------|
         A-7--------9-------10------12------15----|
         E----------------------------------------|

---------------------------------------------------------------------
	(10:09)
         E----------------------------------------|
         B----------------------------------------|
         G-9-9-9---9999---------9-----------------|
G1       D-9-9-9---9999---------9-----------------|
         A-7-7-7---7777---x-x-x-7-x-x-xxx---------|
         E-0-0-0---0000---x-x-x-0-x-x-xxx---------|
                                                  |
                                                  | (x 2)
     						  |
        (10:09)				          |
         E----------------------------------------|
         B----------------------------------------|
         G----------------------------------------|
G2       D----------------------------------------|
         A-14-------------------------------------|
         E----------------------------------------|

         (10:15)
         E---------------------------------|
         B---------------------------------|
         G-7-7-7---7777---x-x-x-7-x-x-xxx--|
G1       D-7-7-7---7777---x-x-x-7-x-x-xxx--|
         A-5-5-5---5555---x-x-x-5-x-x-xxx--|
         E----------------x-x-x---x-x-xxx--|

         (10:15)
         E---------------------------------|
         B---------------------------------|
         G---------------------------------|
G2       D---------------------------------|
         A-12------------------------------|
         E---------------------------------|


	(10:18)
         E---------------------------------|
         B---------------------------------|
         G-5-5-5---5555---x-x-x-5-x-x-xxx--|
G1       D-5-5-5---5555---x-x-x-5-x-x-xxx--|
         A-3-3-3---3333---x-x-x-3-x-x-xxx--|
         E----------------x-x-x---x-x-xxx--|

         (10:18)
         E--------------------------------------------------|
         B--------------------------------------------------|
         G--------------------------------------------------|
G2       D--------------------------------------------------|
         A-15-----------------------------------------------|
         E--------------------------------------------------|
------------------------------------------------------------|
(repeat above section)

(Guitar 2: Heavily Distorted, Use Pick)

	 (10:45)
         E---------------------------------|
         B---------------------------------|
         G-9-9-9---9999---x-x-x-9-x-x-xxx--|
G1       D-9-9-9---9999---x-x-x-9-x-x-xxx--|
         A-7-7-7---7777---x-x-x-7-x-x-xxx--|
         E-0-0-0---0000---x-x-x-0-x-x-xxx--|
        				   |
         (10:45)   			   | (x4)
         E-12---12----12-12---12---12------|
         B-15---15^17-17-17---17---17------|
         G---------------------------------|
G2       D---------------------------------|
         A---------------------------------|
         E---------------------------------|

-----------------------------------------------------------------------------------
	 (10:58)
         E---------------------------------|
         B---------------------------------|
         G-9-9-9---9999---x-x-x-9-x-x-xxx--|
G1       D-9-9-9---9999---x-x-x-9-x-x-xxx--| (x 2)
         A-7-7-7---7777---x-x-x-7-x-x-xxx--|
         E-0-0-0---0000---x-x-x-0-x-x-xxx--|

         (10:58)
         E------------------------------------|
         B------------------------------------|
         G------------------------------------|
G2       D------------------------------------|
         A-12---------------------------------|
         E------------------------------------|

	(11:04)
         E---------------------------------------------------------------|
         B---------------------------------------------------------------|
         G-7-7-7---7777---x-x-x-7-x-x-xxx-5-5-5---5555---x-x-x-5-x-x-xxx-|
G1       D-7-7-7---7777---x-x-x-7-x-x-xxx-5-5-5---5555---x-x-x-5-x-x-xxx-|
         A-5-5-5---5555---x-x-x-5-x-x-xxx-3-3-3---3333---x-x-x-3-x-x-xxx-|
         E-0-0-0---0000---x-x-x-0-x-x-xxx-0-0-0---0000---x-x-x-0-x-x-xxx-|

	(11:04)
         E-----------------------------------------------------------------------|
         B-----------------------------------------------------------------------|
         G-----------------------------------------------------------------------|
G2       D-----------------------------------------------------------------------|
         A-14-----------------------------15---------17--------------------------|
         E-----------------------------------------------------------------------|
---------------------------------------------------------------------------------|
(repeat above section)

	(11:23)
         E---------------------------------|
         B---------------------------------|
         G---------------------------------|
G1       D-2-------------------------------|
         A-2-------------------------------|
         E-0-------------------------------|
	(11:23)
         E---------------------------------|
         B---------------------------------|
         G---------------------------------|
G2       D---------------------------------|
         A---------------------------------|
         E-0-------------------------------|
(heavy feedback)

| /  slide up
| \  slide down
| h  hammer-on
| p  pull-off
| ~  vibrato
| +  harmonic
| x  Mute note
===============================================================================
Suggest correction
Creating personal tab
Creating personal tab
You can edit any tab online and save it as your Personal.

You can edit, replace or remove any tab part or add personal notes – all changes will be seen only by you.

Personal tabs can be accessed anytime from any device, even offline.
Learn more »
comments
print report bad tab
9 comments total. Showing first comments.
0 reply
Neighborhood3 82 May 02, 2006 10:59 AM

Amazing tab! nice job. i admire your patience you must've had when transcribing this.

0 reply
TheParanoid 144 May 02, 2006 04:44 PM

damnit, i just remembered something i missed.

oh well.

0 reply
TheParanoid 144 May 02, 2006 05:20 PM

nevermind, i forgot i could edit it.

guest
You may want to rate the tab now too:
select rating
Wanna post a correction for this tab? Suggest correction