Oops, an error
Loading. Please wait.

Flaca tab

version 1
version 1

Whole song

Interactive

23,285 views 78 this week
2 commentsread comments
1 2 3 4 5
x 30
add to favorites
×
Save as Personal and add changes to this tab that will be seen only by you. Learn more ›
×
You can save this tab as Personal to edit and correct it or add notes. All changes will be seen only by you. Learn more »
launch autoscroll
font size
0
reset
how to read this tab
guitar tuner
edit
Autoscroll
slow
fast
+/-
esc
set tempo
stop
Author
Difficulty
Tabbers playing skills
intermediate +
[Intro]
     G                 B7                   Em                     C
e|--------------------------------------------------------------------------|
B|--3----0-------0--3--4------0-------0--4--5------0----------0--3--1-1-----|
G|----------2--0-----------------2--0-----------------2--0--2---------------|
D|--------------------------------------------------------------------------|
A|--------------------------------------------------------------------------|
E|--------------------------------------------------------------------------|

 G                   D            G             D
e|--------------------------------------------------------------------------|
B|--0---3----0-----------0--3----0------------------------------------------|
G|--------------2--0--2-------------2--0------------------------------------|
D|--------------------------------------------------------------------------|
A|--------------------------------------------------------------------------|
E|--------------------------------------------------------------------------|

  G            B7
Flaca, no me claves,
       Em              C
Tus pu§ãales, por la espalda,
        G             D
Tan profundo, no me duelen,
             G     D
No me hacen mal.
 G            B7
Lejos, en el centro,
        Em            C
De la tierra, las raices,
      G            D
Del amor, donde estaban,
      G     D
Quedaran.
G
Entre no me olvides,
      B7
Me deje nuestros abriles,
     Em
Olvidados,
                    C
En el fondo del placard,
                   G
Del cuarto de invitados,
                D
Eran tiempos dorados,
             G     D
Un pasado mejor.
        G
Aunque casi me equivoco
      B7
Y te digo poco a poco,
        Em
No me mientas,
                   C
No me digas la verdad,
                 G
No te quedes callada,
                D
No levantes la voz,
                G     D
Ni me pidas perdon.
(Se repite ¡°Flaca, no me claves...¡±)

[Outro]
               G           B7            Em                 C
e|--------------------------------------------------------------------------|
B|------------1--0-0-------5---4-4-------7---5--0-----0--1--3--1-1----------|
G|--------0-2--------------------------------------2------------------------|
D|--0-2-4-------------------------------------------------------------------|
A|--------------------------------------------------------------------------|
E|--------------------------------------------------------------------------|

  G                  D             G             D
e|-----------3------------------2-------------------------------------------|
B|---------3------------------3---------------------------------------------|
G|--2---4--------------4---2---------2--0-----------------------------------|
D|--------------------------------------------------------------------------|
A|--------------------------------------------------------------------------|
E|--------------------------------------------------------------------------|

            
            
Suggest correction
Creating personal tab
Creating personal tab
You can edit any tab online and save it as your Personal.

You can edit, replace or remove any tab part or add personal notes – all changes will be seen only by you.

Personal tabs can be accessed anytime from any device, even offline.
Learn more »
comments
print report bad tab
2 comments total.
0 reply
Mariano10792 10 Mar 24, 2007 11:44 AM

bueeena,, greeat tab

+3 reply
aefuenzag 112 May 20, 2012 05:58 PM

buena! excelente
pero te falto una estrofa :P

Aunque casi te confieso
que tambien he sido un perro
compa?ero, un perro ideal,
que aprendio a ladrar, y al
volver al hgar al hogar,
para poder comer...

guest
You may want to rate the tab now too:
select rating
Wanna post a correction for this tab? Suggest correction