Oops, an error
Loading. Please wait.

Installing The Catheter tab

version 2
version 2

Whole song

Interactive

1,486 views 1 this week
1 commentread comment
1 2 3 4 5
x 4
add to favorites
×
Save as Personal and add changes to this tab that will be seen only by you. Learn more ›
×
You can save this tab as Personal to edit and correct it or add notes. All changes will be seen only by you. Learn more »
launch autoscroll
font size
0
reset
how to read this tab
guitar tuner
edit
Autoscroll
slow
fast
+/-
esc
set tempo
stop
Installing The Catheter
36 Crazyfists
A Snow Capped Romance
Drop C Tuning- CGCFAD

-Intro-
Gtr 1- Light Dist. & Phaser
D|-----------------------------------------|
A|-----------------------------------------|
F|-----6-6-------6-6-------6-6-------6-6---|
C|---0-----0---0-----0---0-----0---0-----0-|
G|-4---------4---------4---------4---------|
C|-----------------------------------------|

Gtr 1,2- Distortion
D|-----------------------------------------------|
A|-----7-7-7-7-7-7-7---------3-------------------|
F|-----6-6-6-6-6-6-6---------2-------------------|
C|-4-4-4-4-4-4-4-4-4-6-6-0-0-0-0-7-7-7-7-9-9-9-9-|
G|-4-4-4-4-4-4-4-4-4-6-6-0-0-0-0-7-7-7-7-9-9-9-9-|
C|-4-4-4-4-4-4-4-4-4-6-6-0-0-0-0-7-7-7-7-9-9-9-9-|

D|-------------------------------------------------|
A|-----7-7-7-7-7-7-7---------3---------------------|
F|-----6-6-6-6-6-6-6---------2---------------------|
C|-4-4-4-4-4-4-4-4-4-6-6-0-0-0-0-7-7-7-7/9---9---9-|
G|-4-4-4-4-4-4-4-4-4-6-6-0-0-0-0-7-7-7-7/9---9---9-|
C|-4-4-4-4-4-4-4-4-4-6-6-0-0-0-0-7-7-7-7/9---9---9-|

-Verse-
Gtr 1- Light Dist. & Phaser
D||------------------------------------------|
A||o-----------------------------------------|
F||------6-6-------6-6-------6-6-------6-6---|
C||----0-----0---0-----0---0-----0---0-----0-|
G||o-4---------4---------4---------4---------|
C||------------------------------------------|
1:"Through the long sleep, darkness bleeds
through the silver and I..."
2:"Another open eye to secrets,
with plans to scrape them clean..."

D|------------------------------------------------------|
A|------------------------------------------------------|
F|-----6-6------6---6-6---6-6-------6-6-----6---6---6-6-|
C|---0-----0----0---0-0---0-0-----0-----0---0---0---0-0-|
G|-4------------4---4-4---4-4---4-----------4---4---4-4-|
C|------------------------------------------------------|
-"Reminded the layout as the wings, they all died"
-"And I have stacked them higher than anyone believed"

Gtr 1,2- Distortion
D|-----------------------------------------------------------------||
A|----------------------------------------------------------------o||
F|-11-11-11-11-11-11-11-11--14-14-14---11---11-11---11-11---14-14--||
C|-x--x--x--x--x--x--x--x---x--x--x----x----x--x----x--x----x--x---||
G|-9--9--9--9--9--9--9--9---12-12-12---9----9--9----9--9----12-12-o||
C|-0--0--0--0--0--0--0--0---0--0--0----0----0--0----0--0----0--0---||
-"And it all hates like you, destroys the message"
-"And it downplays the scene, IT ALL COMES CRASHING!"

Gtr 1
D|-------|
A|-------|
F|-----6-|
C|---0---|
G|-4-----|
C|-------|

-Chorus-
D|-----------------------------------------------|
A|-----7-7-7-7-7-7-7---------3-------------------|
F|-----6-6-6-6-6-6-6---------2-------------------|
C|-4-4-4-4-4-4-4-4-4-6-6-0-0-0-0-7-7-7-7-9-9-9-9-|
G|-4-4-4-4-4-4-4-4-4-6-6-0-0-0-0-7-7-7-7-9-9-9-9-|
C|-4-4-4-4-4-4-4-4-4-6-6-0-0-0-0-7-7-7-7-9-9-9-9-|
"Don't be removed, I got you where I...

D|-------------------------------------------------|
A|-----7-7-7-7-7-7-7---------3---------------------|
F|-----6-6-6-6-6-6-6---------2---------------------|
C|-4-4-4-4-4-4-4-4-4-6-6-0-0-0-0-7-7-7-7/9-9-9-9-9-|
G|-4-4-4-4-4-4-4-4-4-6-6-0-0-0-0-7-7-7-7/9-9-9-9-9-|
C|-4-4-4-4-4-4-4-4-4-6-6-0-0-0-0-7-7-7-7/9-9-9-9-9-|
...Said that I would always put you"

D|-----------------------------------------------------|
A|---------------------------------------8-7-------8-7-|
F|-------12-11-------12-11---12-11-------7-7-------7-7-|
C|-9-9-9-9--9--9-9-9-9--9--9-9--9--5-5-5-5-5-4-4-4-4-4-|
G|-9-9-9-9--9--9-9-9-9--9--9-9--9--5-5-5-5-5-4-4-4-4-4-|
C|-9-9-9-9--9--9-9-9-9--9--9-9--9--5-5-5-5-5-4-4-4-4-4-|
"And I'm heading for the bottom, the bottom of you"

D|-----------------------------------------------|
A|-------------------8-7-3-3-3-3-----------------|
F|-------12-11-------7-7-2-2-2-2-7-7-7-7---------|
C|-9-9-9-9--9--5-5-5-5-5-0-0-0-0-5-5-5-5---5~~~~-|
G|-9-9-9-9--9--5-5-5-5-5-0-0-0-0-5-5-5-5---5~~~~-|
C|-9-9-9-9--9--5-5-5-5-5-0-0-0-0-5-5-5-5---5~~~~-|
"And I'm heading for the bottom, the bottom of you"

"THE BOTTOM OF YOU!!!"
D|---------------------------------------------|
A|---------------------------------------------|
F|-------6-6----------6-6----------6-6-6---6-6-|
C|-0---0-x-x---0--0-0-x-x---0--0-0-x-x-x---x-x-|
G|-0---0-4-4---0--0-0-4-4---0--0-0-4-4-4---4-4-|
C|-0---0-------0--0-0-------0--0-0-------------|

-Verse-
Gtr 1- Light Dist. & Phaser
D||------------------------------------------|
A||o-----------------------------------------|
F||------6-6-------6-6-------6-6-------6-6---|
C||----0-----0---0-----0---0-----0---0-----0-|
G||o-4---------4---------4---------4---------|
C||------------------------------------------|
1:"Come and take me over,
the lights have been removed..."
2:"Take on me as long as you think,
that you can handle..."

D|------------------------------------------------------|
A|------------------------------------------------------|
F|-----6-6------6---6-6---6-6-------6-6-----6---6---6-6-|
C|---0-----0----0---0-0---0-0-----0-----0---0---0---0-0-|
G|-4------------4---4-4---4-4---4-----------4---4---4-4-|
C|------------------------------------------------------|
-"With pieces at ankles, we answered"
-"And taking me to truth and tearing me from scandal"

Gtr 1,2- Distortion
D|-----------------------------------------------------------------||
A|----------------------------------------------------------------o||
F|-11-11-11-11-11-11-11-11--14-14-14---11---11-11---11-11---14-14--||
C|-x--x--x--x--x--x--x--x---x--x--x----x----x--x----x--x----x--x---||
G|-9--9--9--9--9--9--9--9---12-12-12---9----9--9----9--9----12-12-o||
C|-0--0--0--0--0--0--0--0---0--0--0----0----0--0----0--0----0--0---||
-"And it all tastes like you, and all it captures"
-"And it all saves like you, DEFINE DISASTER!!!"

Gtr 1
D|-------|
A|-------|
F|-----6-|
C|---0---|
G|-4-----|
C|-------|

-Chorus-
D|-----------------------------------------------|
A|-----7-7-7-7-7-7-7---------3-------------------|
F|-----6-6-6-6-6-6-6---------2-------------------|
C|-4-4-4-4-4-4-4-4-4-6-6-0-0-0-0-7-7-7-7-9-9-9-9-|
G|-4-4-4-4-4-4-4-4-4-6-6-0-0-0-0-7-7-7-7-9-9-9-9-|
C|-4-4-4-4-4-4-4-4-4-6-6-0-0-0-0-7-7-7-7-9-9-9-9-|
"Don't be removed, I got you where I...

D|-------------------------------------------------|
A|-----7-7-7-7-7-7-7---------3---------------------|
F|-----6-6-6-6-6-6-6---------2---------------------|
C|-4-4-4-4-4-4-4-4-4-6-6-0-0-0-0-7-7-7-7/9-9-9-9-9-|
G|-4-4-4-4-4-4-4-4-4-6-6-0-0-0-0-7-7-7-7/9-9-9-9-9-|
C|-4-4-4-4-4-4-4-4-4-6-6-0-0-0-0-7-7-7-7/9-9-9-9-9-|
...Said that I would always put you"

D|-----------------------------------------------------|
A|---------------------------------------8-7-------8-7-|
F|-------12-11-------12-11---12-11-------7-7-------7-7-|
C|-9-9-9-9--9--9-9-9-9--9--9-9--9--5-5-5-5-5-4-4-4-4-4-|
G|-9-9-9-9--9--9-9-9-9--9--9-9--9--5-5-5-5-5-4-4-4-4-4-|
C|-9-9-9-9--9--9-9-9-9--9--9-9--9--5-5-5-5-5-4-4-4-4-4-|
"And I'm heading for the bottom, the bottom of you"

D|-----------------------------------------------|
A|-------------------8-7-3-3-3-3-----------------|
F|-------12-11-------7-7-2-2-2-2-7-7-7-7---------|
C|-9-9-9-9--9--5-5-5-5-5-0-0-0-0-5-5-5-5---5~~~~-|
G|-9-9-9-9--9--5-5-5-5-5-0-0-0-0-5-5-5-5---5~~~~-|
C|-9-9-9-9--9--5-5-5-5-5-0-0-0-0-5-5-5-5---5~~~~-|
"And I'm heading for the bottom, the bottom of you"

"The bottom of yooouuu"

Gtr 1- Light Distortion
D||------------------------------------------------||
A||o----------------------------------------------o||
F||---6---6---6---6---6------2---1---2---4---2---1-||
C||-0---0---0---0---0----0-0---0---0---0---0---0---||
G||o----------------------------------------------o||
C||------------------------------------------------||
"And I don't die like you, tormented skies...
Treated to taste and outlast the sun"

D|---------------------|
A|---------------------|
F|---6---6---6---6---6-|
C|-0---0---0---0---0---|
G|---------------------|
C|---------------------|
"I design what ails"

Gtr 1,2- Distortion
D|-------------------------------------------|
A|-------------------------------------------|
F|----6-------------------7------------------|
C|-0--x-------------------x------------------|
G|-0--4--0--0-0-0--0-0-0--5--2--2-2-2--2-2-2-|
C|-0-----0--0-0-0--0-0-0-----2--2-2-2--2-2-2-|
         pm - - -  - - -     -  - - -  - - -
"AND I! DESIGN!  DESIGN!  DESIGN WHAT AILS!"

D|----------------------------------------|
A|----------------------------------------|
F|-6-------------------7------------------|
C|-x-------------------x------------------|
G|-4--4--4-4-4--4-4-4--5--5--5-5-5--5-5-5-|
C|----4--4-4-4--4-4-4-----5--5-5-5--5-5-5-|
      -  - - -  - - -     -  - - -  - - -
"AND I! DESIGN!  DESIGN!  DESIGN WHAT AILS!"

D|-------------------------------------------|
A|-------------------------------------------|
F|-6-------------------7---------------------|
C|-x-------------------x-----------2-2-2-2-2-|
G|-4--0--0-0-0--0-0-0--5--2--2-2-2-2-2-2-2-2-|
C|----0--0-0-0--0-0-0-----2--2-2-2-2-2-2-2-2-|
      -  - - -  - - -     -  - - -

-Chorus-
D|-----------------------------------------------|
A|-----7-7-7-7-7-7-7---------3-------------------|
F|-----6-6-6-6-6-6-6---------2-------------------|
C|-4-4-4-4-4-4-4-4-4-6-6-0-0-0-0-7-7-7-7-9-9-9-9-|
G|-4-4-4-4-4-4-4-4-4-6-6-0-0-0-0-7-7-7-7-9-9-9-9-|
C|-4-4-4-4-4-4-4-4-4-6-6-0-0-0-0-7-7-7-7-9-9-9-9-|
"Don't be removed, I got you where I...

D|-------------------------------------------------|
A|-----7-7-7-7-7-7-7---------3---------------------|
F|-----6-6-6-6-6-6-6---------2---------------------|
C|-4-4-4-4-4-4-4-4-4-6-6-0-0-0-0-7-7-7-7/9-9-9-9-9-|
G|-4-4-4-4-4-4-4-4-4-6-6-0-0-0-0-7-7-7-7/9-9-9-9-9-|
C|-4-4-4-4-4-4-4-4-4-6-6-0-0-0-0-7-7-7-7/9-9-9-9-9-|
...Said that I would always put you"

D|-----------------------------------------------------|
A|---------------------------------------8-7-------8-7-|
F|-------12-11-------12-11---12-11-------7-7-------7-7-|
C|-9-9-9-9--9--9-9-9-9--9--9-9--9--5-5-5-5-5-4-4-4-4-4-|
G|-9-9-9-9--9--9-9-9-9--9--9-9--9--5-5-5-5-5-4-4-4-4-4-|
C|-9-9-9-9--9--9-9-9-9--9--9-9--9--5-5-5-5-5-4-4-4-4-4-|
"And I'm heading for the bottom, the bottom of you"

D|-----------------------------------------------|
A|-------------------8-7-3-3-3-3-----------------|
F|-------12-11-------7-7-2-2-2-2-7-7-7-7---------|
C|-9-9-9-9--9--5-5-5-5-5-0-0-0-0-5-5-5-5---5~~~~-|
G|-9-9-9-9--9--5-5-5-5-5-0-0-0-0-5-5-5-5---5~~~~-|
C|-9-9-9-9--9--5-5-5-5-5-0-0-0-0-5-5-5-5---5~~~~-|
"And I'm heading for the bottom, the bottom of you"

-Outro-
Gtr 1- Clean
D|-----------------------------------|
A|-----------------------------------|
F|-----------------------------------|
C|-----------------------------------|
G|-----------------------------------|
C|-0--0-0-0--0-0-0---0--0-0-0--0-0-0-|
   -  - - -  - - -   -  - - -  - - -
"COLDEST OF THE COLD, STAY OUTSIDE!!"

D|-----------------------------------|
A|-----------------------------------|
F|-----------------------------------|
C|-----------------------------------|
G|-----------------------------------|
C|-0--0-0-0--0-0-0---0--0-0-0--0-0-0-|
   -  - - -  - - -   -  - - -  - - -
"BRING ON HARMS WAAY!!!"

Gtr 1,2- Distortion
D|------------------------------------|
A|------------------------------------|
F|------------------------------------|
C|-0~---------------------------------|
G|-0~--0-0-0--0-0-0---0--0-0-0--0-0-0-|
C|-0~--0-0-0--0-0-0---0--0-0-0--0-0-0-|
   -   - - -  - - -   -  - - -  - - -
"COLDEST OF THE COLD, STAY OUTSIDE!!"

D|--------------------------------------------|
A|--------------------------------------------|
F|------------------------------------6/7-7\4-|
C|------------------------------------x-x-x-x-|
G|-0--0-0-0--0-0-0---0--0-0-0--0-0-0--4/5-5\2-|
C|-0--0-0-0--0-0-0---0--0-0-0--0-0-0----------|
   -  - - -  - - -   -  - - -  - - -
"BRINGS ON HARMS WAAY!!!"

D|------------------------------------|
A|------------------------------------|
F|------------------------------------|
C|-0~---------------------------------|
G|-0~--0-0-0--0-0-0---0--0-0-0--0-0-0-|
C|-0~--0-0-0--0-0-0---0--0-0-0--0-0-0-|
   -   - - -  - - -   -  - - -  - - -
"COLDEST OF THE COLD, STAY OUTSIDE!!"

D|--------------------------------------------|
A|--------------------------------------------|
F|------------------------------------6/7-7\4-|
C|------------------------------------x-x-x-x-|
G|-0--0-0-0--0-0-0---0--0-0-0--0-0-0--4/5-5\2-|
C|-0--0-0-0--0-0-0---0--0-0-0--0-0-0----------|
   -  - - -  - - -   -  - - -  - - -
"BRINGS ON HARMS WAAY!!!"

D|--------------------------------------|
A|--------------------------------------|
F|------------------------------------6-|
C|------------------------------------x-|
G|-0--0-0-0--0-0-0---0--0-0-0--0-0-0--4-|
C|-0--0-0-0--0-0-0---0--0-0-0--0-0-0----|
   -  - - -  - - -   -  - - -  - - -
D|--------------------------------------------|
A|--------------------------------------------|
F|------------------------------------6/7-7\4-|
C|------------------------------------x-x-x-x-|
G|-0--0-0-0--0-0-0---0--0-0-0--0-0-0--4/5-5\2-|
C|-0--0-0-0--0-0-0---0--0-0-0--0-0-0----------|
   -  - - -  - - -   -  - - -  - - -
"BRINGS ON HARMS WAAY!!!"

D|--------------------------------------|
A|--------------------------------------|
F|------------------------------------6-|
C|------------------------------------x-|
G|-0--0-0-0--0-0-0---0--0-0-0--0-0-0--4-|
C|-0--0-0-0--0-0-0---0--0-0-0--0-0-0----|
   -  - - -  - - -   -  - - -  - - -
D|---------------------------------------------------|
A|---------------------------------------------------|
F|------------------------------------6/7-7\4--------|
C|------------------------------------x-x-x-x--0~~~~-|
G|-0--0-0-0--0-0-0---0--0-0-0--0-0-0--4/5-5\2--0~~~~-|
C|-0--0-0-0--0-0-0---0--0-0-0--0-0-0-----------0~~~~-|
   -  - - -  - - -   -  - - -  - - -           -
"BRINGS ON HARMS WAAY!!!"

            
            
Suggest correction
Creating personal tab
Creating personal tab
You can edit any tab online and save it as your Personal.

You can edit, replace or remove any tab part or add personal notes – all changes will be seen only by you.

Personal tabs can be accessed anytime from any device, even offline.
Learn more »
comments
print report bad tab
1 comment total.
0 reply
HGF 205 Mar 31, 2009 10:25 AM

I gave you 5 stars for this one, cause its too close to be perfect, this is the only right tab for this song.
But, at the time the voice screams "AND I! DESIGN! DESIGN! DESIGN WHAT AILS!", I think the guitar is just in one chord, thats wrong
other than that, this tab helped me out a lot, thank you

guest
You may want to rate the tab now too:
select rating
Wanna post a correction for this tab? Suggest correction