Oops, an error
Loading. Please wait.

The Tide And Its Takers tab

version 2
version 2

Whole song

Interactive

1,993 views 1 this week
no commentswrite comment
1 2 3 4 5
3 more votes to show rating
add to favorites
×
Save as Personal and add changes to this tab that will be seen only by you. Learn more ›
×
You can save this tab as Personal to edit and correct it or add notes. All changes will be seen only by you. Learn more »
launch autoscroll
font size
0
reset
how to read this tab
guitar tuner
edit
Autoscroll
slow
fast
+/-
esc
set tempo
stop
The Tide And Its Takers
36 Crazyfists
The Tide And Its Takers
Drop C- CGCFAD


-Intro-
Gtr 1- Acoustic
D|-------------------------0-------------------------------------|
A|---------0-------------------------------0-----4-----2-----2p0-|
F|-----6-----6---6-----6-----6---------2-----2-----2-----2-------|
C|---6---6-----6-----6---6-----6-----2---2-----2-----2-----2-----|
G|-4---------------4-------------4-0-----------------------------|
C|---------------------------------------------------------------|

D|-------------------------0-------------------------------------|
A|---------0-------------------------------0-----4-----2~~~~~~~~-|
F|-----6-----6---6-----6-----6---------2-----2-----2---2~~~~~~~~-|
C|---6---6-----6-----6---6-----6-----2---2-----2-----2-2~~~~~~~~-|
G|-4---------------4-------------4-0-------------------0~~~~~~~~-|
C|---------------------------------------------------------------|


-Verse-
D||--------------------------0--------------------------------------||
A||o---------0-------------------------------0-----4-----2-----2p0-o||
F||------6-----6---6-----6-----6---------2-----2-----2-----2--------||
C||----6---6-----6-----6---6-----6-----2---2-----2-----2-----2------||
G||o-4---------------4-------------4-0-----------------------------o||
C||-----------------------------------------------------------------||
-"Open to Mayyy, when we were young and braaave...
-Took steps to remove mee, I'll come iiin and ouuut...

D|--------------------------------------------------------------------|
A|--------------------------------------------------------------------|
F|--------------------------------------------------------------------|
C|-----4---6-7---------7---9-11---------4---6-7---------9-----12-11---|
G|---4---4-----4-----7---7------7-----4---4-----4-----7---7---------9-|
C|-4-------------4-7--------------7-4-------------4-7-------9---------|
...With the tiiides. The lost and the loved, I admiiirre...

D||--------------------------0--------------------------------------||
A||o---------0-------------------------------0-----4-----2-----2p0-o||
F||------6-----6---6-----6-----6---------2-----2-----2-----2--------||
C||----6---6-----6-----6---6-----6-----2---2-----2-----2-----2------||
G||o-4---------------4-------------4-0-----------------------------o||
C||-----------------------------------------------------------------||
-You have everrry chaaance...
-To close thiiis, take it all dooown and ouuut...

D|--------------------------------------------------------------------|
A|--------------------------------------------------------------------|
F|--------------------------------------------------------------------|
C|-----4---6-7---------7---9-11---------4---6-7---------9-----12-11---|
G|---4---4-----4-----7---7------7-----4---4-----4-----7---7---------9-|
C|-4-------------4-7--------------7-4-------------4-7-------9---------|
...Of siiight. Where there's nothing to fiind, where there's nothing to"


-Pre Chorus-
D|--------------------------------------------|
A|--------------------------------------------|
F|--------------------------------------------|
C|-11~-11-11--11~-11~-11-11--11~--11-11-11-11-|
G|--9~--9--9---9~--9~--9--9---9~---9--9--9--9-|
C|--9~--9--9---9~--9~--9--9---9~---9--9--9--9-|
"Hiiiiiide"


-Chorus-
D||----0-----0-----0-----0------0-----0-----0-----0----||
A||o---0-----0-----0-----0------0-----0-----0-----0---o||
F||----------------------------------------------------||
C||--6---6-6---6-6---6-6---6--2---2-2---2-2---2-2---2--||
G||--4---4-4---4-4---4-4---4--2---2-2---2-2---2-2---2-o||
C||o-4---4-4---4-4---4-4---4--2---2-2---2-2---2-2---2--||
-"Your breath fills my skiiin, all the way iiin...
-In the event of that emergency, I'll ask for your saving...

D|-------------------------|
A|-------------------------|
F|-------------------------|
C|-4-4-4-4-4-4--11--11--11-|
G|-4-4-4-4-4-4--9---9---9--|
C|-4-4-4-4-4-4--9---9---9--|
...Agaaaaaain...

D|-------------------------0-------------------------------------|
A|---------0-------------------------------0-----4-----2-----2p0-|
F|-----6-----6---6-----6-----6---------2-----2-----2-----2-------|
C|---6---6-----6-----6---6-----6-----2---2-----2-----2-----2-----|
G|-4---------------4-------------4-0-----------------------------|
C|---------------------------------------------------------------|
...Agaain"

D|-------------------------0-------------------------------------|
A|---------0-------------------------------0-----4-----2~~~~~~~~-|
F|-----6-----6---6-----6-----6---------2-----2-----2---2~~~~~~~~-|
C|---6---6-----6-----6---6-----6-----2---2-----2-----2-2~~~~~~~~-|
G|-4---------------4-------------4-0-------------------0~~~~~~~~-|
C|---------------------------------------------------------------|


-Verse-
Gtr 1- Acoustic
D||--------------------------0--------------------------------------||
A||o---------0-------------------------------0-----4-----2-----2p0-o||
F||------6-----6---6-----6-----6---------2-----2-----2-----2--------||
C||----6---6-----6-----6---6-----6-----2---2-----2-----2-----2------||
G||o-4---------------4-------------4-0-----------------------------o||
C||-----------------------------------------------------------------||
Gtr 2- Electric Dist. (low treble)
D||-----------------------------------------------------------------||
A||o---------------------------------------------------------------o||
F||--9~~~-8~~~~~~~~~~~~~~-9~~~-8~~----------------------------------||
C||--------------------------------9~~~-11~~~~~~~~~~~~~~~~~~~~~~~~~-||
G||o---------------------------------------------------------------o||
C||-----------------------------------------------------------------||
-"Return to nooow, as we are open wiiide...
-Underneath the haze of lights and scents of cigarettes and lies...

Gtr 1
D|--------------------------------------------------------------------|
A|--------------------------------------------------------------------|
F|--------------------------------------------------------------------|
C|-----4---6-7---------7---9-11---------4---6-7---------9-----12-11---|
G|---4---4-----4-----7---7------7-----4---4-----4-----7---7---------9-|
C|-4-------------4-7--------------7-4-------------4-7-------9---------|
Gtr 2
D|--------------------------------------------------------------------|
A|-9~~-7~~~~-9~~-7~~---------------9~~-7~~~~-9~~-7~~------------------|
F|-------------------8~~-9~~~~~~~~-------------------8~~-9~~~~~~~~~~~-|
C|--------------------------------------------------------------------|
G|--------------------------------------------------------------------|
C|--------------------------------------------------------------------|
...So say your goodbyyyes and let it all die toniiight...

Gtr 1
D||--------------------------0--------------------------------------||
A||o---------0-------------------------------0-----4-----2-----2p0-o||
F||------6-----6---6-----6-----6---------2-----2-----2-----2--------||
C||----6---6-----6-----6---6-----6-----2---2-----2-----2-----2------||
G||o-4---------------4-------------4-0-----------------------------o||
C||-----------------------------------------------------------------||
Gtr 2
D||-----------------------------------------------------------------||
A||o---------------------------------------------------------------o||
F||--9~~~-8~~~~~~~~~~~~~~-9~~~-8~~----------------------------------||
C||--------------------------------9~~~-11~~~~~~~~~~~~~~~~~~~~~~~~~-||
G||o---------------------------------------------------------------o||
C||-----------------------------------------------------------------||
-'Cause you had everrry chaaance...
-To close thiiis, and let it all iiin and ouuut...

Gtr 1
D|--------------------------------------------------------------------|
A|--------------------------------------------------------------------|
F|--------------------------------------------------------------------|
C|-----4---6-7---------7---9-11---------4---6-7---------9-----12-11---|
G|---4---4-----4-----7---7------7-----4---4-----4-----7---7---------9-|
C|-4-------------4-7--------------7-4-------------4-7-------9---------|
Gtr 2
D|--------------------------------------------------------------------|
A|-9~~-7~~~~-9~~-7~~---------------9~~-7~~~~-9~~-7~~------------------|
F|-------------------8~~-9~~~~~~~~-------------------8~~-9~~~~~~~~~~~-|
C|--------------------------------------------------------------------|
G|--------------------------------------------------------------------|
C|--------------------------------------------------------------------|
...Of siiight. Where there's nothing to hiiide, where faith buries"


-Pre Chorus-
D|--------------------------------------------|
A|--------------------------------------------|
F|--------------------------------------------|
C|-11~-11-11--11~-11~-11-11--11~--11-11-11-11-|
G|--9~--9--9---9~--9~--9--9---9~---9--9--9--9-|
C|--9~--9--9---9~--9~--9--9---9~---9--9--9--9-|
"Striiiife"


-Chorus-
Gtr 1,2
D||----0-----0-----0-----0------0-----0-----0-----0----||
A||o---0-----0-----0-----0------0-----0-----0-----0---o||
F||----------------------------------------------------||
C||--6---6-6---6-6---6-6---6--2---2-2---2-2---2-2---2--||
G||--4---4-4---4-4---4-4---4--2---2-2---2-2---2-2---2-o||
C||o-4---4-4---4-4---4-4---4--2---2-2---2-2---2-2---2--||x4
-"Your breath fills my skiiiin, all the way iiiiiiin...
-In the event of that emergency, I'll ask for your saving agaaaain...
-I'd sleep in mountains of rain, to never escape from the endless yoooouu...
-And we'll sidestep the masses and live life through glasses of truuuuuuuth"

D|-------------------------|
A|-------------------------|
F|-------------------------|
C|-4-4-4-4-4-4--11--11--11-|
G|-4-4-4-4-4-4--9---9---9--|
C|-4-4-4-4-4-4--9---9---9--|


-Outro-
D|-------------------------0-------------------------------------|
A|---------0-------------------------------0-----4-----2-----2p0-|
F|-----6-----6---6-----6-----6---------2-----2-----2-----2-------|
C|---6---6-----6-----6---6-----6-----2---2-----2-----2-----2-----|
G|-4---------------4-------------4-0-----------------------------|
C|---------------------------------------------------------------|
"And you'll never go away...

D|-------------------------0-------------------------------------|
A|---------0-------------------------------0-----4-----2~~~~~~~~-|
F|-----6-----6---6-----6-----6---------2-----2-----2---2~~~~~~~~-|
C|---6---6-----6-----6---6-----6-----2---2-----2-----2-2~~~~~~~~-|
G|-4---------------4-------------4-0-------------------0~~~~~~~~-|
C|---------------------------------------------------------------|
...Yeah, you'll never go, awaaaaaaaay"

            
            
Suggest correction
Creating personal tab
Creating personal tab
You can edit any tab online and save it as your Personal.

You can edit, replace or remove any tab part or add personal notes – all changes will be seen only by you.

Personal tabs can be accessed anytime from any device, even offline.
Learn more »
Give kudos to tab author, rate the tab!
1 2 3 4 5
comments
print report bad tab
guest
You may want to rate the tab now too:
select rating
Wanna post a correction for this tab? Suggest correction