Oops, an error
Loading. Please wait.

Soon Well Be Dead tab

version 1
version 1

Whole song

3,746 views 1 this week
2 commentsread comments
1 2 3 4 5
1 last vote to show rating
add to favorites
×
Save as Personal and add changes to this tab that will be seen only by you. Learn more ›
×
You can save this tab as Personal to edit and correct it or add notes. All changes will be seen only by you. Learn more »
launch autoscroll
font size
0
reset
how to read this tab
guitar tuner
edit
Autoscroll
slow
fast
+/-
esc
set tempo
stop
Author
Difficulty
--------------------------------------------------------------------------
 SOON WE'LL BE DEAD - Leftover Crack with World/Inferno Friendship Society
--------------------------------------------------------------------------

Band: Leftover Crack with World/Inferno Friendship Society
Album: Fuck World Trade (2004, Alternative Tentacles Records)
Song: Soon We'll Be Dead

Tabbed by Kyle T.
Contact: pants_me@hotmail.com
Site: www.wqhosting.com/~ohpkyle/

Standard tuning (EADGbe)

Legend:

pm... - Palm mute
  x   - Dead note
  ~   - Let ring
  %   - Rest
  /   - Slide up
  \   - Slide down
  h   - Hammer on
 b/r  - bend/release
 (x)  - Note tied over from previous bar


--------------------------

Note: At some parts in the song there is a clean electric picking some notes, most 
      likely the chords that the acoustic is playing. The third verse also sounds
      picked.


"If we leave the respondibility of tomorrow up to institutions like the World Trade Organization,
the World Bank, and the International Monetary Fund, we're dooming ourselves to a future of
corporate feudalism and ecological catastrophe."

Fuckin' right!

--------------------------


Tuning: Standard (EADGbe)

Chords Used:

    G   Cadd9  G/E  Dsus4   E5    A
e|--3-----3-----3-----3-----------------|
b|--3-----3-----3-----3-----------2-----|
G|--0-----0-----0-----2-----------2-----|
D|--0-----2-----2-----0-----------2-----|
A|--2-----3-----------------2-----0-----|
E|--3-----------------------0-----------|


Intro:
G     Dsus4          G/E       Cadd9

Verse:
G     Dsus4          G/E       Cadd9

Chorus:
G     Dsus4          G/E       Cadd9

Fill:
G     Dsus4          G/E       Cadd9


Interlude:

e|-----------------------|------------3--3--3-|-----------------------|--------------------|
b|-----------------------|------------3--3--3-|-----------------------|------------2--2--2-|
G|-----------------------|------------2--2--2-|-----------------------|------------2--2--2-|
D|-----------------------|------------0--0--0-|-----------------------|------------2--2--2-|
A|-2--2-2-2-2-2--2-2-2-2-|-2--2-2-2-2---------|-2--2-2-2-2-2--2-2-2-2-|-2--2-2-2-2-0--0--0-|
E|-3--0-0-0-0-3--0-0-0-0-|-3--0-0-0-0---------|-3--0-0-0-0-3--0-0-0-0-|-3--0-0-0-0---------|

e|-----------------------|------------3--3--3-|---------3-------3-----|
b|-----------------------|------------3--3--3-|---------3-------3-----|
G|-----------------------|------------2--2--2-|-0-------0-------2-----|
D|-----------------------|------------0--0--0-|-2-------0-------0-----|
A|-2--2-2-2-2-2--2-2-2-2-|-2--2-2-2-2---------|-2-------2-------------|
E|-3--0-0-0-0-3--0-0-0-0-|-3--0-0-0-0---------|-0-------3-------------|



Fill:
G     Dsus4          G/E       Cadd9

Verse:
G     Dsus4          G/E       Cadd9

Chorus:
G     Dsus4          G/E       Cadd9

Fill:
G     Dsus4          G/E       Cadd9


Interlude:

e|-----------------------|------------3--3--3-|-----------------------|--------------------|
b|-----------------------|------------3--3--3-|-----------------------|------------2--2--2-|
G|-----------------------|------------2--2--2-|-----------------------|------------2--2--2-|
D|-----------------------|------------0--0--0-|-----------------------|------------2--2--2-|
A|-2--2-2-2-2-2--2-2-2-2-|-2--2-2-2-2---------|-2--2-2-2-2-2--2-2-2-2-|-2--2-2-2-2-0--0--0-|
E|-3--0-0-0-0-3--0-0-0-0-|-3--0-0-0-0---------|-3--0-0-0-0-3--0-0-0-0-|-3--0-0-0-0---------|

e|-----------------------|------------3--3--3-|---------3-------3-----|
b|-----------------------|------------3--3--3-|---------3-------3-----|
G|-----------------------|------------2--2--2-|-0-------0-------2-----|
D|-----------------------|------------0--0--0-|-2-------0-------0-----|
A|-2--2-2-2-2-2--2-2-2-2-|-2--2-2-2-2---------|-2-------2-------------|
E|-3--0-0-0-0-3--0-0-0-0-|-3--0-0-0-0---------|-0-------3-------------|


Verse:
G     Dsus4          G/E       Cadd9

Chorus:
G     Dsus4          G/E       Cadd9


Interlude:

e|-----------------------|------------3--3--3-|-----------------------|--------------------|
b|-----------------------|------------3--3--3-|-----------------------|------------2--2--2-|
G|-----------------------|------------2--2--2-|-----------------------|------------2--2--2-|
D|-----------------------|------------0--0--0-|-----------------------|------------2--2--2-|
A|-2--2-2-2-2-2--2-2-2-2-|-2--2-2-2-2---------|-2--2-2-2-2-2--2-2-2-2-|-2--2-2-2-2-0--0--0-|
E|-3--0-0-0-0-3--0-0-0-0-|-3--0-0-0-0---------|-3--0-0-0-0-3--0-0-0-0-|-3--0-0-0-0---------|

e|-----------------------|------------3--3--3-|---------3-------3-----|
b|-----------------------|------------3--3--3-|---------3-------3-----|
G|-----------------------|------------2--2--2-|-0-------0-------2-----|
D|-----------------------|------------0--0--0-|-2-------0-------0-----|
A|-2--2-2-2-2-2--2-2-2-2-|-2--2-2-2-2---------|-2-------2-------------|
E|-3--0-0-0-0-3--0-0-0-0-|-3--0-0-0-0---------|-0-------3-------------|

Outro:
G 
Suggest correction
Creating personal tab
Creating personal tab
You can edit any tab online and save it as your Personal.

You can edit, replace or remove any tab part or add personal notes – all changes will be seen only by you.

Personal tabs can be accessed anytime from any device, even offline.
Learn more »
Give kudos to tab author, rate the tab!
1 2 3 4 5
comments
print report bad tab
2 comments total.
0 reply
Shza 71 May 13, 2009 03:08 PM

Great tab, saved me some time. A couple corrections though: the interlude is actually

A|-2--2222--2--2222--2--2222--
E|-3--0000--0--0000--0--0000-- then E/G(x3)

same thing again but this time it goes to F(x3)

then that again with E/G at the end three times
and the last three chords before it goes back to the verse are B, C, and D (might be the Dsus4 but who cares and the D sounds better imo)

Thanks a lot!!

0 reply
Shza 71 May 13, 2009 03:40 PM

actually you know what, in the interlude that E/G might be an A, that's what I was thinking at first.

guest
You may want to rate the tab now too:
select rating
Wanna post a correction for this tab? Suggest correction