Oops, an error
Loading. Please wait.

La Voz Dormida bass

version 1
version 1

Whole song

Interactive

1,315 views 1 this week
no commentswrite comment
1 2 3 4 5
3 more votes to show rating
add to favorites
×
Save as Personal and add changes to this tab that will be seen only by you. Learn more ›
×
You can save this tab as Personal to edit and correct it or add notes. All changes will be seen only by you. Learn more »
launch autoscroll
font size
0
reset
guitar tuner
edit
Autoscroll
slow
fast
+/-
esc
set tempo
stop
Author
Difficulty
Cancion: La Voz Dormida
Artista: Mägo de Oz
Album: Gaia II - La Voz Dormida
Por: Polo!!
-------------------------------------------------------------------------------------

Intro (00:04)
G||-------------------------------------------------------------------|
D||.------------------------------------------------------------------|
A||.-3-3-3-3-3-3-3-3---------------------------------3-3-3-3----------|
E||------------------3-3-3-3-3-3-3-3-1-1-1-1-1-1-1-1---------3-3-3-3--|

|------------------------------------------------------------------||x2
|-----------------------------------------------------------------.||
|-3-3-3-3-3-3-3-3-------------------------------------------------.||
|-----------------3-3-3-3-3-3-3-3-5-5-5-5-5-5-5-5-3-3-3-3-3-3-3-3--||

00:28
|------------------------------------------------------------------|
|------------------------------------------------------------------|
|-7-7-7-7-7-7-7-7-5-5-5-5-5-5-5-5-----------------3-3-3-3----------|
|---------------------------------5-5-5-5-5-5-5-5---------3-3-3-3--|

|-----------------------------------------------------------------|---|---|
|-----------------------------------------------------------------|---|---|
|-3-3-3-3-3-3-3-3-------------------------------------------------|---|---|
|-----------------3-3-3-3-3-3-3-3-5-5-5-5-5-5-5-5-3-3-3-3-3-3-3-3-|-1-|-3-|

00:46
|------------|---------|
|------------|---------|
|-------7----|---------|
|-5-7-8---5--|-5-8-7-3-|

"Soy de un sitio..."(00:51)
|-------------------------------------------------------------------------
|-------------------------------------------------------------------------
|-3-3-3-3-3-3-3-3---------------------------------------------------------
|-----------------3-3-3-3-3-3-3-3-5-5-5-5-5-5-5-5-3-3-3-3-3-3-3-3-1-1-1-1-

----------------------------------------------------------|
----------------------------------------------------------|
---------3-3-3-3-3-3-3-3-5-5-5-5-5-5-5-5------------------|
-1-1-1-1---------------------------------3-3-3-3-3-3-3-3--|

"Donde la realidad..."(01:03)
|-------------------------------------------------------------------------
|-------------------------------------------------------------------------
|-3-3-3-3-3-3-3-3---------------------------------------------------------
|-----------------3-3-3-3-3-3-3-3-5-5-5-5-5-5-5-5-3-3-3-3-3-3-3-3-1-1-1-1-

------------------------------------------------------------|
------------------------------------------------------------|
-------------------------5-5-5-5-5-5-5-5-3-3-3-3-3-3-3-3----|
-1-1-1-1-5-5-5-5-5-5-5-5----------------------------------3-|

"¿A que sabe el..."(01:16)
|------------------------------------------------------------------|
|------------------------------------------------------------------|
|-----------------5-5-5-5-5-5-5-5-3-3-3-3-3-3-3-3------------------|
|-0-0-0-0-0-0-0-0---------------------------------3-3-3-3-3-3-3-3--|

|------------------------------------------------------------------|
|------------------------------------------------------------------|
|-----------------5-5-5-5-5-5-5-5-3-3-3-3-3-3-3-3---------5-5-5-5--|
|-0-0-0-0-0-0-0-0---------------------------------3-3-3-3----------|

"¿Cuánto pesa un..."(01:28)
|------------------------------------------------------------------|
|------------------------------------------------------------------|
|-----------------5-5-5-5-5-5-5-5-3-3-3-3-3-3-3-3------------------|
|-0-0-0-0-0-0-0-0---------------------------------3-3-3-3-3-3-3-3--|

|------------------------------------------------------------------|
|------------------------------------------------------------------|
|-----------------5-5-5-5-5-5-5-5-3-3-3-3-3-3-3-3---------5-5-5-5--|
|-0-0-0-0-0-0-0-0---------------------------------3-3-3-3----------|

Coro (01:42)
"Y veras que mi..."
|----------------------------------------------------------------|
|----------------------------------------------------------------|
|----------------5-5-5-5-5-5-5-5-3-3-3-3-3-3-3-3--------7-7-7-7--|
|-3-3-3-3-3-3-3-3--------------------------------5-5-5-5---------|

|----------------------------------------------------------------|
|----------------------------------------------------------------|
|----------------5-5-5-5-5-5-5-5-7-7-7-7-7-7-7-7-5-5-5-5-5-5-5-5-|
|-3-3-3-3-3-3-3-3------------------------------------------------|

"Si me quieres seguir..."(01:54)
|----------------------------------------------------------------|
|----------------------------------------------------------------|
|----------------5-5-5-5-5-5-5-5-3-3-3-3-3-3-3-3--------7-7-7-7--|
|-3-3-3-3-3-3-3-3--------------------------------5-5-5-5---------|

|----------------------------------------------------------------|---|---|
|----------------------------------------------------------------|---|---|
|----------------5-5-5-5-5-5-5-5-7-7-7-7-7-7-7-7-5-5-5-5-5-5-5-5-|-3-|-5-|
|-3-3-3-3-3-3-3-3------------------------------------------------|---|---|

02:12
|---------------------------------|---------------------------------|
|---------------------------------|---------------------------------|
|---------7-7-7-7-8-8-8-8---------|---------------------------------|
|-5-5-5-5-----------------8-8-8-8-|-5-5-5-5-3-3-3-3-1-1-1-1-3-3-3-3-|

"He visto a Roma..."(02:24)
|-------------------------------------------------------------------------
|-------------------------------------------------------------------------
|-3-3-3-3-3-3-3-3---------------------------------------------------------
|-----------------3-3-3-3-3-3-3-3-5-5-5-5-5-5-5-5-3-3-3-3-3-3-3-3-1-1-1-1-

----------------------------------------------------------|
----------------------------------------------------------|
---------3-3-3-3-3-3-3-3-5-5-5-5-5-5-5-5------------------|
-1-1-1-1---------------------------------3-3-3-3-3-3-3-3--|

"Que en su nombre..."(02:36)
|-------------------------------------------------------------------------
|-------------------------------------------------------------------------
|-3-3-3-3-3-3-3-3---------------------------------------------------------
|-----------------3-3-3-3-3-3-3-3-5-5-5-5-5-5-5-5-3-3-3-3-3-3-3-3-1-1-1-1-

------------------------------------------------------------|
------------------------------------------------------------|
-------------------------5-5-5-5-5-5-5-5-3-3-3-3-3-3-3-3----|
-1-1-1-1-5-5-5-5-5-5-5-5----------------------------------3-|

"¿Por que es sorda..."(02:49)
|------------------------------------------------------------------|
|------------------------------------------------------------------|
|-----------------5-5-5-5-5-5-5-5-3-3-3-3-3-3-3-3------------------|
|-0-0-0-0-0-0-0-0---------------------------------3-3-3-3-3-3-3-3--|

|------------------------------------------------------------------|
|------------------------------------------------------------------|
|-----------------5-5-5-5-5-5-5-5-3-3-3-3-3-3-3-3---------5-5-5-5--|
|-0-0-0-0-0-0-0-0---------------------------------3-3-3-3----------|

"¿Esta en venta..."(03:01)
|------------------------------------------------------------------|
|------------------------------------------------------------------|
|-----------------5-5-5-5-5-5-5-5-3-3-3-3-3-3-3-3------------------|
|-0-0-0-0-0-0-0-0---------------------------------3-3-3-3-3-3-3-3--|

|------------------------------------------------------------------|
|------------------------------------------------------------------|
|-----------------5-5-5-5-5-5-5-5-3-3-3-3-3-3-3-3---------5-5-5-5--|
|-0-0-0-0-0-0-0-0---------------------------------3-3-3-3----------|

Coro (03:15)
"Y veras que mi..."
|----------------------------------------------------------------|
|----------------------------------------------------------------|
|----------------5-5-5-5-5-5-5-5-3-3-3-3-3-3-3-3--------7-7-7-7--|
|-3-3-3-3-3-3-3-3--------------------------------5-5-5-5---------|

|----------------------------------------------------------------|
|----------------------------------------------------------------|
|----------------5-5-5-5-5-5-5-5-7-7-7-7-7-7-7-7-5-5-5-5-5-5-5-5-|
|-3-3-3-3-3-3-3-3------------------------------------------------|

"Si me quieres seguir..."(03:27)
|----------------------------------------------------------------|
|----------------------------------------------------------------|
|----------------5-5-5-5-5-5-5-5-3-3-3-3-3-3-3-3--------7-7-7-7--|
|-3-3-3-3-3-3-3-3--------------------------------5-5-5-5---------|

|----------------------------------------------------------------|---|---|
|----------------------------------------------------------------|---|---|
|----------------5-5-5-5-5-5-5-5-7-7-7-7-7-7-7-7-5-5-5-5-5-5-5-5-|-3-|-5-|
|-3-3-3-3-3-3-3-3------------------------------------------------|---|---|

"He bajado hasta..."(03:45)
||----------------------------------|---------------------------------||x2
||.---------------------------------|---------------------------------||
||.---------7-7-7-7-8-8-8-8---------|---------------------------------||
||--5-5-5-5-----------------8-8-8-8-|-5-5-5-5-3-3-3-3-1-1-1-1-3-3-3-3-||

Solo de teclado (04:09)
||---------------------------------------------------------------||x5
||.-------------------------------------------------------------.||
||.------------------------------------------------3-3-3-5-5-5--.||
||--0-0-0-0-0-0-0-0-3-3-3-3-3-3-3-3-5-5-5-5-5-5-5-5--------------||

04:39
|--------------------------2-4-2----|-------------------------2-4-2----|
|---------------------2-4-5-----5-4-|--------------------2-4-5-----5-4-|
|-----------------------------------|----------------------------------|
|-0-0-0-0-0-0-0-0-0-0---------------|-0-0-0-0-0-0-0-0-0-0--------------|

|---------------------------------|--------------------------|
|---------------------------------|--------------------------|
|----------------------3-5-3------|--------------------------|
|-3-3-3-3-3-3-3-3-3-5-6------6-5--|-5-5-5-5-5-5-5-5-5-5-5-5--|

Solo de flauta(04:51)
|--------------------------2-4-2----|-------------------------2-4-2----|
|---------------------2-4-5-----5-4-|--------------------2-4-5-----5-4-|
|-----------------------------------|----------------------------------|
|-0-0-0-0-0-0-0-0-0-0---------------|-0-0-0-0-0-0-0-0-0-0--------------|

|---------------------------------|--------------------------|
|---------------------------------|--------------------------|
|----------------------3-5-3------|--------------------------|
|-3-3-3-3-3-3-3-3-3-5-6------6-5--|-5-5-5-5-5-5-5-5-5-5-5-5--|

Violin y flauta(05:03)
||----------------------------------|------------------------||x2
||.---------------------------------|-----------------------.||
||.-7-7-7-7-3-3-3-3-2-2-2-2---------|-7-7-7-7-3-3-3-3-2-6-7-.||
||--------------------------0-0-0-0-|------------------------||

05:14
|-----------------|----------------|
|-----------------|----------------|
|---------7-7-----|---------7---7--|
|-2-3-5-7-----7-7-|-2-3-5-7---7----|

05:21
||----------------------------------|------------------------||x2
||.---------------------------------|-----------------------.||
||.-7-7-7-7-3-3-3-3-2-2-2-2---------|-7-7-7-7-3-3-3-3-2-6-7-.||
||--------------------------0-0-0-0-|------------------------||

05:33
|-----------------|----------------|
|-----------------|----------------|
|---------7-7-----|---------7---7--|
|-2-3-5-7-----7-7-|-2-3-5-7---7----|

05:38
||--------------------------------------------------||x3
||.------------------------------------------------.||
||.-7-7-7-2-2-2-7-7-7-3-3-3-7-7-7-2-2-2-7-3-2-6-7--.||
||--------------------------------------------------||

06:01
||---------------------------------|--------------------------||x3
||.--------------------------------|-------------------------.||
||.-7-7-7-7-7-7-7-7-7-7-7-7---10---|-7-7-7-7-7-7-7-7-7-7-----.||
||------------------------------10-|---------------------8-7--||

06:26
|-----|-----|-----|------|
|-----|-----|-----|------|
|-----|-----|-----|-10---|
|-0-0-|-0-0-|-0-0-|---10-|

|-----|-----|-----|----------9-|-----------|
|-----|-----|-----|--------9---|-----------|
|-----|-----|-----|-7-9-10-----|-7-10-9-5--|
|-0-0-|-0-0-|-0-0-|------------|-----------|

Solo de guitarra 1 (06:35)
||---------------------------------------------------------------||x4
||.-------------------------------------------------------------.||
||.------------------------------------------------3-3-3-5-5-5--.||
||--0-0-0-0-0-0-0-0-3-3-3-3-3-3-3-3-5-5-5-5-5-5-5-5--------------||

JUnto al piano (06:59)
|----------|-------------------------------------------------|
|----------|-------------------------------------------------|
|-----3--5-|------------------------3-3-3-3-3-3-5-5-5-5-5-5--|
|-0-3------|-0-0-0-0-0-0-3-3-3-3-3-3-------------------------|

07:11
||----------------------------------------------------------------------||x2
||.--------------------------------------------------------------------.||
||.---------------------------------3-3-3-3-3-3-3-3-5-5-5-5-5-5-5-5-5--.||
||--0-0-0-0-0-0-0-0-3-3-3-3-5-5-5-5-------------------------------------||

Solo de guitarra 2 (07:23)
||----------------------------------------------------||x2
||.--------------------------------------------------.||
||.-------------------------3-3-3-3-3-3-5-5-5-5-5-5--.||
||--0-0-0-0-0-0-3-3-3-3-3-3---------------------------||

07:35
||-------------------------------------------------------------------|
||.------------------------------------------------------------------|
||.-----------------5-5-5-5-5-5-5-5-7-7-7-7-7-7-7-7-5-5-5-5-5-5-5-5--|
||--3-3-3-3-3-3-3-3--------------------------------------------------|

-------------------------------------------------------------------||x2
------------------------------------------------------------------.||
-----------------5-5-5-5-5-5-5-5-3-3-3-3-3-3-3-3-5-5-5-5-5-5-5-5--.||
-3-3-3-3-3-3-3-3---------------------------------------------------||

Cambio de tono (08:00)
||-------------------------------------------------------------------|
||.------------------------------------------------------------------|
||.-----------------2-2-2-2-2-2-2-2-4-4-4-4-4-4-4-4-2-2-2-2-2-2-2-2--|
||--0-0-0-0-0-0-0-0--------------------------------------------------|

-------------------------------------------------------------------||x2
------------------------------------------------------------------.||
-----------------2-2-2-2-2-2-2-2-0-0-0-0-0-0-0-0-2-2-2-2-2-2-2-2--.||
-0-0-0-0-0-0-0-0---------------------------------------------------||

"Y veras que yo..." (08:23)
||-------------------------------------------------------------------|
||.------------------------------------------------------------------|
||.-----------------2-2-2-2-2-2-2-2-4-4-4-4-4-4-4-4-2-2-2-2-2-2-2-2--|
||--0-0-0-0-0-0-0-0--------------------------------------------------|

-------------------------------------------------------------------||
------------------------------------------------------------------.||
-----------------2-2-2-2-2-2-2-2-0-0-0-0-0-0-0-0-2-2-2-2-2-2-2-2--.||
-0-0-0-0-0-0-0-0---------------------------------------------------||

Coro (08:36)
"Y veras que mi..."
|-----------------------------------------------------------------|
|-----------------------------------------------------------------|
|----------------3-3-3-3-3-3-3-3-1-1-1-1-1-1-1-1---------3-3-3-3--|
|-1-1-1-1-1-1-1-1--------------------------------1-1-1-1----------|

|-----------------------------------------------------------------|
|-----------------------------------------------------------------|
|----------------3-3-3-3-3-3-3-3-5-5-5-5-5-5-5-5-3-3-3-3-3-3-3-3--|
|-1-1-1-1-1-1-1-1-------------------------------------------------|

"Si me quieres seguir..." (08:49)
|-----------------------------------------------------------------|
|-----------------------------------------------------------------|
|----------------3-3-3-3-3-3-3-3-1-1-1-1-1-1-1-1---------3-3-3-3--|
|-1-1-1-1-1-1-1-1--------------------------------1-1-1-1----------|

|-----------------------------------------------------------------|---|---|
|-----------------------------------------------------------------|---|---|
|----------------3-3-3-3-3-3-3-3-5-5-5-5-5-5-5-5-3-3-3-3-3-3-3-3--|-1-|-3-|
|-1-1-1-1-1-1-1-1-------------------------------------------------|---|---|

Coro (09:07)
"Y veras que mi..."
|----------------------------------------------------------------|
|----------------------------------------------------------------|
|----------------5-5-5-5-5-5-5-5-3-3-3-3-3-3-3-3--------7-7-7-7--|
|-3-3-3-3-3-3-3-3--------------------------------5-5-5-5---------|

|----------------------------------------------------------------|
|----------------------------------------------------------------|
|----------------5-5-5-5-5-5-5-5-7-7-7-7-7-7-7-7-5-5-5-5-5-5-5-5-|
|-3-3-3-3-3-3-3-3------------------------------------------------|

"Si me quieres seguir..."(09:19)
|----------------------------------------------------------------|
|----------------------------------------------------------------|
|----------------5-5-5-5-5-5-5-5-3-3-3-3-3-3-3-3--------7-7-7-7--|
|-3-3-3-3-3-3-3-3--------------------------------5-5-5-5---------|

|----------------------------------------------------------------|---|---|
|----------------------------------------------------------------|---|---|
|----------------5-5-5-5-5-5-5-5-7-7-7-7-7-7-7-7-5-5-5-5-5-5-5-5-|-3-|-5-|
|-3-3-3-3-3-3-3-3------------------------------------------------|---|---|

"He ardido en mil..." (09:37)
|----------------------------------|
|----------------------------------|
|---------7-7-7-7-8-8-8-8----------|
|--5-5-5-5-----------------8-8-8-8-|

"He vivdo el..."
|------------------|--------------------------------------------------|---|
|------------------|--------------------------------------------------|---|
|------------------|--------------------------------------------------|---|
|-5-5-5-5-3-3-3-3--|-1-1-3-5-3-1-3-3-5-7-5-3-5-5-7-8-7-5-7-7-8-10-8-7-|-0-|

Outro (09:55)
|------------|
|------------|
|------------|
|-5-8-7-3-5--|

Comentarios o sugerencias a satania1990@gmail.com



            
            
Suggest correction
Creating personal tab
Creating personal tab
You can edit any tab online and save it as your Personal.

You can edit, replace or remove any tab part or add personal notes – all changes will be seen only by you.

Personal tabs can be accessed anytime from any device, even offline.
Learn more »
Give kudos to tab author, rate the tab!
1 2 3 4 5
comments
print report bad tab
guest
You may want to rate the tab now too:
select rating
Wanna post a correction for this tab? Suggest correction