Oops, an error
Loading. Please wait.

Behold The White Whore tab

version 1
version 1

Whole song

Interactive

1,433 views 1 this week
1 commentread comment
1 2 3 4 5
3 more votes to show rating
add to favorites
×
Save as Personal and add changes to this tab that will be seen only by you. Learn more ›
×
You can save this tab as Personal to edit and correct it or add notes. All changes will be seen only by you. Learn more »
launch autoscroll
font size
0
reset
how to read this tab
guitar tuner
edit
Autoscroll
slow
fast
+/-
esc
set tempo
stop
D------------------------------------------------------------------------------------------------------------------|
A------------------------------------------------------------------------------------------------------------------|
F------------------------------------------------------------------------------------------------------------------|
C-------8--6---------8-----------8--6---------8-------------8--6---------------------------------------------------|
G-----8-----------8----6-------8------------8----0--------8--------------------------------------------------------|
C-/888-------/888---------/888---------/888------0---/888----------------------------------------------------------|

E------------------------------------------------------------------------------------------------------------------|
B------------------------------------------------------------------------------------------------------------------|
G------------------------------------------------------------------------------------------------------------------|
D--------8-----------8--6-------8--7--6~------6~-------------------------------------------------------------------|
A------8----6-------8-----------8--7--6~------6~-------------------------------------------------------------------|
E-/888--------/888--------/888--8--7--6~------6~-------------------------------------------------------------------|
                                                                            X4
E------------------------88-----8----------------------------------------------------------------------------------|
B----------------------------------9-------------------------------------------------------------------------------|
G-----8----------8------------------------8---------8-------13-13--------------------------------------------------|
D--66----6--66--8-----77-----77------66-----6--66-8----1111--------1111--9--8--------------------------------------|
A--66-------66--------77-----77------66--------66------1111--------1111--9--8--------------------------------------|
E--66-------66--------77-----77------66--------66------1111--------1111--9--8--------------------------------------|

D------------------------------------------------------------------------------------------------------------------|
A-------------11---------------------------------------------------------------------------------------------------|
F--8---10--12----12--10--12-----12--10--12--12-10-12----10--8--10--10/12--10--8--10----8--6--8---------------------|
C----------------------------10-----------------------8------------------------------6----------8---6----6---------|
G------------------------------------------------------------------------------------------------------8-----------|
C------------------------------------------------------------------------------------------------------------------|

D------------------------------------------------------------------------------------------------------------------|
A-------------11---------------------------------------------------------------------------------------------------|
F--8---10--12----12--10--12-----12--10--12--12-13-12----10--8--10--10/12--10--8--10----8--6--8---------------------|
C----------------------------10-----------------------8------------------------------6----------8---6----6---------|
G------------------------------------------------------------------------------------------------------8-----------|
C------------------------------------------------------------------------------------------------------------------|

E------------------------------------------------------------------------------------------------------------------|
B------------------------------------------------------------------------------------------------------------------|
G-----8-----8---------12---------12-------10------10------5--------------------------------------------------------|
D-666---666----101010-----101010-----888------888-----555----------------------------------------------------------|
A-666---666----101010-----101010-----888------888-----555----------------------------------------------------------|
E-666---666----101010-----101010-----888------888-----555----------------------------------------------------------|

This 90% Correct I think, i couldnt get the Begging down right and this is all i hve 
out yet. I hope you enjoy, and Feel free to take parts from this tab to a complter tab(Be 
to put thanks to me in that)

Have Fun!

myspace.com/thejonbenet

            
            
Suggest correction
Creating personal tab
Creating personal tab
You can edit any tab online and save it as your Personal.

You can edit, replace or remove any tab part or add personal notes – all changes will be seen only by you.

Personal tabs can be accessed anytime from any device, even offline.
Learn more »
Give kudos to tab author, rate the tab!
1 2 3 4 5
comments
print report bad tab
1 comment total.
0 reply
Rocky899 31 Jul 20, 2006 08:22 PM

Tuning is CGCFAD
Sorry if thats not clear I kepy copying a EADGBE Tab.

Yea, couldnt get the begining that well.

Most of that repeats anyways. They some of it differnetly in the video, but I made it so its easyer.

guest
You may want to rate the tab now too:
select rating
Wanna post a correction for this tab? Suggest correction