Oops, an error
Loading. Please wait.
We have an official Gang Control tab made by UG professional guitarists. Check out the tab »
×
1,206 views 1 this week
no commentswrite comment
1 2 3 4 5
3 more votes to show rating
add to favorites
×
Save as Personal and add changes to this tab that will be seen only by you. Learn more ›
×
You can save this tab as Personal to edit and correct it or add notes. All changes will be seen only by you. Learn more »
launch autoscroll
font size
0
reset
guitar tuner
edit
Autoscroll
slow
fast
+/-
esc
set tempo
stop
Difficulty
Hey guys. This is my first tab so sorry if its wrong. There are some different beats in
    that you will half to just figure out for yourself cause I cant write all of them in
For example, Verse part 2 is alittle tricky and took me a while to figure out. Well who 
so just start playing it.


GANG CONTROL
Beat: 212 or 106

INTRO 2x   (0:03)
G:-------------------------------------------]
D:-----764-----------6-976-------------------]
A:-4-74---764------7--7---976----------------]
E:-----------4-5-4-----------9-7-------------]
   1 414314311 2 1 4 124214214 2        <----]FINGERS

VERSE PART 1  4x
G:------------------------------------]
D:-------7-6---6-------6-9-7-6-7------]
A:-----7-----9-----6-7------------6---]
E:---9-----------7---------------7----]
     4 2 2 1 4 2 1 1 2 1 4 2 1 3 21

 VERSE PART 2  2x
G:-------------------------]
D:-------------------------]
A:--4-4-------7-7-----9-9-7]
E:------45-54-----7-7------]
    2 2 12 21 4 4 2 2 4 4 3

 VERSE PART 3  4x       4th TIME
G:--------------------] G:-------]
D:-22-211-1-----------] D:-------]
A:---------44-400-2---] A:-2-hold]
E:--------------------] E:-------]
   22 211 144 400 2        2

CHORUS 2x
G:------------------------]
D:--------------------2---]
A:-------24--2--22---2----]
E:0--00-------------------]
  0  00  14  1  11   14

VERSE PART 1  2x
G:------------------------------------]
D:-------7-6---6-------6-9-7-6-7------]
A:-----7-----9-----6-7-------------6--]
E:---9-----------7---------------7----]
     4 2 2 1 4 2 1 1 2 1 4 2 1 3 2 1

VERSE PART 2  2x
G:-------------------------]
D:-------------------------]
A:--4-4-------7-7-----9-9-7]
E:------45-54-----7-7------]
    2 2 12 21 4 4 2 2 4 4 3

VERSE PART 3 4x
                         4th TIME
G:----------------------] G:-------]
D:-22-211-1-------------] D:-------]
A:---------44-400-2-----] A:-2-hold]
E:----------------------] E:-------]
   22 211 144 400 2          2


CHORUS 2x
G:-------------------------]
D:---------------------2---]
A:------2-24--2--22---2----]
E:0--00--------------------]
  0  00 1 14  1  11   14


AFTER CHORUS PART 1  2x       2nd TIME
G:--------------------------] G:--------]
D:--------------------------] D:--------]
A:--------4-42-0-00--2-24---] A:--4-----]
E:--0-00--------------------] E:--------]
    0 00  4 41 0 00  1 14         4

AFTER CHORUS PART 2
G:-----------------------------------------]
D:--2-2--------------2-2—-4-4--2-------2-2-]
A:----------4-4—-0-0-----2------4----------]
E:--------------4--------------------------]
    1 1     2 2 10 0 3 3 24 4  14      1 1

G:-------------------------------------222222222\------]
D:---------------------2222222244444444----------------]
A:----44-4----00-022-2---------------------------------]
E:--------44-4-------------------------------------5\--]
      22 211 1    11 1 1111111144444444111111111   2

CHORUS 2x
G:--------------------------]
D:----------------------2---]
A:--------2-24--2-22---2----]
E:0--00---------------------]
  0  00   1 41  1 11   14

AFTER CHORUS PART 3  2x
G:------------------------------------]
D:------------------------------22-2--]
A:----------44-422-200-000-022-2------]
E:--00-000-0--------------------------]
    00 000 044 411 100 000 022 222 2

END 2x				       2nd TIME
G:-----------------------------------] G:-------]|
D:--22-222-211-1----------------11-1-] D:-2-hold]|
A:--------------22-200-000-022-2-----] A:-------]|
E:-----------------------------------] E:-------]|
    22 222 211 122 200 000 022 211 1      1

-----------------------------------------------------------------------
INTRO 2x
VERSE PART 1  4x
VERSE PART 2  2x
VERSE PART 3  4x
CHORUS 2x
VERSE PART 1  2x
VERSE PART 2  2x
VERSO PART 3  4x
CHORUS 2x
AFTER CHORUS PART 1  2x
AFTER CHORUS PART 2
CHORUS 2x
AFTER CHORUS PART 3  2x
END 2x

            
            
Suggest correction
Creating personal tab
Creating personal tab
You can edit any tab online and save it as your Personal.

You can edit, replace or remove any tab part or add personal notes – all changes will be seen only by you.

Personal tabs can be accessed anytime from any device, even offline.
Learn more »
Give kudos to tab author, rate the tab!
1 2 3 4 5
comments
print report bad tab
guest
Wanna post a correction for this tab? Suggest correction