Oops, an error
Loading. Please wait.
We have an official Kryptonite tab made by UG professional guitarists. Check out the tab »
×

Kryptonite chords

1,825 views 81 this week
no commentswrite comment
1 2 3 4 5
x 4
add to favorites
×
Save as Personal and add changes to this tab that will be seen only by you. Learn more ›
×
You can save this tab as Personal to edit and correct it or add notes. All changes will be seen only by you. Learn more »
launch autoscroll
font size
0
reset
transpose
0
reset
simplify chords
display chords
guitar tuner
backing track
0:00
0:00
edit
Autoscroll
slow
fast
+/-
esc
set tempo
stop
About this tab version
Reworked tab, this is meant to be as a easy way to play a cover on a single acoustic guitar... Was this info helpful? Yes No
Strumming Is this strumming pattern correct? Yes No
Chorus 180 bpm
1
&
2
&
3
&
4
&
Listen
[Intro]


  Bm                           1 1 4
e|-----------------|-----------------|
B|-------3---------|-----------------|
G|-----4-----4-----|-------0-----2-4-|
D|---4-----------4-|-----0-----2-----| x3
A|-2-----------2---|---2-----0-------|
E|-----------------|-3---------------|

{last one}
e|-------------------------0-----|
B|-------3-------------------0---|
G|-----4---4-----------0-------0-|
D|---4---------4-----0-----------|
A|-2---------2-----2-----0-------|
E|---------------3---------------|


[Verse 1]

{Play tab}
Bm                       G                A
I took a walk around the world to ease my troubled mind
Bm                    G                A
I left my body laying somewhere in the sands of time
Bm                                   G                A
but I watched the world float to the dark side of the moon
Bm                            G   Asus2 {last one tab}
I feel there is nothing I can do


[Interlude 1]

Bm   G   Asus2
yeah

Bm G Asus2


[Verse 2]

{play tab}
Bm                                G               A
I watched the world float to the dark side of the moon
Bm                  G                   A
After all I knew it had to be something to do with youhoo
Bm                          G            A
I really don't mind what happens now and then
Bm                        G           Asus2 {last one tab}
As long as you'll be my friend at the end


[Chorus 1]

Bm                       G                A
If I go crazy then will you still call me Superman
Bm                          Em           F#              Bm
                                           A|-4--0--2-|
If I'm alive and well, will you be there oh  holding my  hand
Bm                            G       A
I'll keep you by my side with my superhuman
Bm               Em  F#
might Kryptonite


[Interlude 2]

   Bm    Bmsus2      Bm7sus2   G {strum x8}
e|-2--------------------2------3-----------2------|
B|-3-----2-----5--3--2----2----3--------------3--2|
G|-4--4-----4---------------2--0------------------|
D|-4---------------------------0------------------|
A|-2---------------------------2------------------|
E|-----------------------------3------------------|


[Verse 3]

Bm                                  G             A
You called me strong, you called me weak but your secrets I will keep
Bm                           G             A
You took for granted all the times I never let you down
Bm                         G           A
You stumbled in and bumped your head, if not for me then you would be dead
Bm                          G             Asus2 {last one tab}
I picked you up and put you back on solid ground


[Chorus 2]

Bm                       G                A
If I go crazy then will you still call me Superman
Bm                          Em           F#              Bm
                                           A|-4--0--2-|
If I'm alive and well, will you be there oh  holding my  hand
Bm                            G       A
I'll keep you by my side with my superhuman
Bm               Em  F#
might Kryptonite


[Solo]

e ------------------------------------------------------------------------------------------------|
b ------------------------------------------------------------------------------------------------|
g ------------------------------------------------------------------------------------------------|
d ----------------------2-------------------------------------------------------------------------| x2
a -2---4---5---4--5--4------5---4---5--4-----2---4---5---4--5--4--5-7-5-7-5-7-5-7-4-5-4-5-4-5-4-5-|
E ----------------------------------------5-------------------------------------------------------|


[Interlude 3]

   Bm    Bmsus2      Bm7sus2   G{strum x8}
e|-2--------------------2------3----------2------|
B|-3-----2-----5--3--2----2----3-------------3--2|
G|-4--4-----4---------------2--0-----------------|
D|-4---------------------------0-----------------|
A|-2---------------------------2-----------------|
E|-----------------------------3-----------------|


[Bridge]

{notes rhythm goes along with words almost 1 for 1}
   Bm         B7sus2           G                 Asus2
e -2--2-------2--2-------------2--2--------------0--0---|
b -3----3-----2----2-----------2----2-0----------0----0-|
g -4------4---2------2---------0-----------------2------|
d -4----------4----------------0-----------------2------|
a -2----------2----------------2-----------------0------|
E -----------------------------3------------------------|
      If I go crazy then will you still call me Superman

   Bm         B7sus2             G                 F#
e -2--2-------2--2---------------2--2--------------2--2---|
b -3----3-----2----2-------------2----2-0----------2----2-|
g -4------4---2------2-----------0-----------------3------|
d -4----------4------------------0-----------------4------|
a -2----------2------------------2-----------------4------|
E -------------------------------3-----------------2------|
      If I'm alive and well will you be there oh   holding my

   Bm         B7sus2
e -2--2---------------2--2-----|
b -3----3-------------2----2---|
g -4------4-----------2------2-|
d -4------------------4--------|
a -2------------------2--------|
E -----------------------------|
   hand I'll keep you by my side with

G       Asus2
my superhuman
Bm
might Kryptonite
Em   F#
Yeaa ah


[Chorus 3]

Bm                       G                A
If I go crazy then will you still call me Superman
Bm                          Em           F#              Bm
                                           A|-4--0--2-|
If I'm alive and well, will you be there oh  holding my  hand
Bm                            G       A
I'll keep you by my side with my superhuman
Bm               Em  F#
might Kryptonite


[Outro]

e ------------------------------------------------------------------------------------------------|
b ------------------------------------------------------------------------------------------------|
g ------------------------------------------------------------------------------------------------|
d ----------------------2-------------------------------------------------------------------------| x4
a -2---4---5---4--5--4------5---4---5--4-----2---4---5---4--5--4--5-7-5-7-5-7-5-7-4-5-4-5-4-5-4-5-|
E ----------------------------------------5-------------------------------------------------------|
                                Oh     whoa  whoa                                         Oh  whoa  whoa (x3)

            
            
Suggest correction
Creating personal tab
Creating personal tab
You can edit any tab online and save it as your Personal.

You can edit, replace or remove any tab part or add personal notes – all changes will be seen only by you.

Personal tabs can be accessed anytime from any device, even offline.
Learn more »
comments
print report bad tab
guest
You may want to rate the tab now too:
select rating
Wanna post a correction for this tab? Suggest correction