Oops, an error
Loading. Please wait.

Power Tool bass

314 views 1 this week
1 commentread comment
1 2 3 4 5
2 more votes to show rating
add to favorites
×
Save as Personal and add changes to this tab that will be seen only by you. Learn more ›
×
You can save this tab as Personal to edit and correct it or add notes. All changes will be seen only by you. Learn more »
launch autoscroll
font size
0
reset
guitar tuner
edit
Autoscroll
slow
fast
+/-
esc
set tempo
stop
Author
intro/verse/chorus
G--------------------------------
D--------------------------------
A-2-----4h5------------2---------
E---2-------4--4-4h5-6----2--320-

bridge type part
G------------
D------------
A--2---------
E------2-----

heavy part
G-------------------------
D-------------------------
A---------------33333-----
E-1000010001000-----------

            
            
Suggest correction
Creating personal tab
Creating personal tab
You can edit any tab online and save it as your Personal.

You can edit, replace or remove any tab part or add personal notes – all changes will be seen only by you.

Personal tabs can be accessed anytime from any device, even offline.
Learn more »
Give kudos to tab author, rate the tab!
1 2 3 4 5
comments
print report bad tab
1 comment total.
0 reply
gringo 410 Jul 31, 2002 08:00 PM

main riff
G----------------------------------
D----------------------------------
A----------------------------------
E-2-------------2------------------
B---3-3h5-4-4h5---3---320----------

Heavy part
B-320320320320-1111----------------

guest
You may want to rate the tab now too:
select rating
Wanna post a correction for this tab? Suggest correction