Oops, an error
Loading. Please wait.

En El Muelle De San Blás Tab

version 2
version 2

Intro

Interactive

65,162 views 6 this week
5 commentsread comments
1 2 3 4 5
x 15
add to favorites
launch autoscroll
font size
0
reset
how to read this tab
guitar tuner
×
Best way to learn
"En El Muelle De San Blás"
Autoscroll
slow
fast
+/-
esc
set tempo
stop
tab made by rubs 

intro & versos 
e-----------------7-------------------------5-------------------------5--------
B------------8----------8-------------5---------5---------------5----------5---
G---------9-----9----9----9--------7-----7----7----7---------6-----6-----6----6
D--------------------------------------------------------0---------------------
A------------------------------0-----------------------------------------------
E------0-----------------------------------------------------------------------

e------------------3-----2-----0----
B-------------3---------------------
G-----------4---4-----4-------------
D-----------------------------------
A-----------------------------------
E-------3---------------------------
Suggest correction
comments
print report bad tab
5 comments total. Showing first comments.
0 reply
mike45391 10 Feb 04, 2006 08:39 PM

great tab i think its correct except for :
e------------------3-----2-----0----
B-------------3---------------------
G-----------4---4-----4-------------
D-----------------------------------
A-----------------------------------
E-------3---------------------------
i dont think that last 4 and 0 should be there but it could just be me cause its late and im tired... but still GREAT JOB!!

0 reply
luisaceo 77 Jan 06, 2007 11:06 AM

its a good tab, though the first E (6th string) should be an octave higher ( 2nd fret 4th string)

0 reply
dancer6390 10 May 27, 2007 01:25 PM

i was listening to the track, and i believe that this:
e------------------3-----2-----0----
B-------------3---------------------
G-----------4---4-----4-------------
D-----------------------------------
A-----------------------------------
E-------3---------------------------

should be:

e------------------3-----2----------
B-------------3----------------3----
G-----------4---4-----4-------------
D-----------------------------------
A-----------------------------------
E-------3---------------------------

otherwise, nice tab! everything else seems pretty accurate.

guest
You may want to rate the tab now too:
select rating
Wanna post a correction for this tab? Suggest correction