Oops, an error
Loading. Please wait.
We have an official De Música Ligera tab made by UG professional guitarists. Check out the tab »
×
8,134 views 3 this week
2 commentsread comments
1 2 3 4 5
x 4
add to favorites
×
Save as Personal and add changes to this tab that will be seen only by you. Learn more ›
×
You can save this tab as Personal to edit and correct it or add notes. All changes will be seen only by you. Learn more »
launch autoscroll
font size
0
reset
how to read this tab
guitar tuner
backing track
0:00
0:00
edit
Autoscroll
slow
fast
+/-
esc
set tempo
stop
Author
Difficulty
intermediate
Beat=125
Compas: 4/4

     Bm   Bm                  D    D   D A  A  A  A
     Q    E.  S E  E  Q       Q    E.  S E  E  E  E
E||--2----2-----------3----|--2----2---2-0--0--0--0--|
B||--3----3-----------0----|--3----3---3-2--2--2--2--|
G||--4----4-----------0----|--2----2---2-2--2--2--2--|
D||--0----0-----------0----|--0----0---0-2--2--2--2--|
A||--2----2----------------|-------------0--0--0--0--|
E||-----------3-3--3-------|-------------------------|


                         Entra bajo y batería 0:05
  Bm   Bm                  D    D   D A  A  A  A
  Q    E.  S E  E  Q       Q    E.  S E  E  E  E
--2----2-----------3----|--2----2---2-0--0--0--0--|
--3----3-----------0----|--3----3---3-2--2--2--2--|
--4----4-----------0----|--2----2---2-2--2--2--2--|
--0----0-----------0----|--0----0---0-2--2--2--2--|
--2----2----------------|-------------0--0--0--0--|
-----------3-3--3-------|-------------------------|


  Bm   Bm                  D    D   D A  A  A  A
  Q    E.  S E  E  Q       Q    E.  S E  E  E  E
--2----2-----------3----|--2----2---2-0--0--0--0--|
--3----3-----------0----|--3----3---3-2--2--2--2--|
--4----4-----------0----|--2----2---2-2--2--2--2--|
--0----0-----------0----|--0----0---0-2--2--2--2--|
--2----2----------------|-------------0--0--0--0--|
-----------3-3--3-------|-------------------------|


  Bm   Bm                  D    D   D A  A  A  A
  Q    E.  S E  E  Q       Q    E.  S E  E  E  E
--2----2-----------3----|--2----2---2-0--0--0--0--|
--3----3-----------0----|--3----3---3-2--2--2--2--|
--4----4-----------0----|--2----2---2-2--2--2--2--|
--0----0-----------0----|--0----0---0-2--2--2--2--|
--2----2----------------|-------------0--0--0--0--|
-----------3-3--3-------|-------------------------|


  Bm   Bm                  D    D   D A  A  A  A
  Q    E.  S E  E  Q       Q    E.  S E  E  E  E
--2----2-----------3----|--2----2---2-0--0--0--0--|
--3----3-----------0----|--3----3---3-2--2--2--2--|
--4----4-----------0----|--2----2---2-2--2--2--2--|
--0----0-----------0----|--0----0---0-2--2--2--2--|
--2----2----------------|-------------0--0--0--0--|
-----------3-3--3-------|-------------------------|


  Bm   Bm                  D    D   D A  A  A  A
  Q    E.  S E  E  Q       Q    E.  S E  E  E  E
--2----2-----------3----|--2----2---2-0--0--0--0--|
--3----3-----------0----|--3----3---3-2--2--2--2--|
--4----4-----------0----|--2----2---2-2--2--2--2--|
--0----0-----------0----|--0----0---0-2--2--2--2--|
--2----2----------------|-------------0--0--0--0--|
-----------3-3--3-------|-------------------------|


Entra voz: 0:23
“Ella durmió,          al calor de las     maa sas
  W                   W                   W
-------------------|-------------------|-------------------|
-------------------|-------------------|-------------------|
-------------------|-------------------|-------------------|
-------------------|-------------------|-------------------|
-------------------|-------------------|-------------------|
-------------------|-------------------|-------------------|


                 y   yo desperté         queriendo soñaar...
  W                   W                   W
-------------------|-------------------|-------------------|
-------------------|-------------------|-------------------|
-------------------|-------------------|-------------------|
-------------------|-------------------|-------------------|
-------------------|-------------------|-------------------|
-------------------|-------------------|-------------------|


la.                              Algún    tiempo atrás,
  W                   W                   H.           Q
-------------------|-------------------|---------------3----|
-------------------|-------------------|---------------0----|
-------------------|-------------------|---------------0----|
-------------------|-------------------|---------------0----|
-------------------|-------------------|--------------------|
-------------------|-------------------|--------------------|


            pensé  en  escri  birle                   que
  D    D                                     D    D
  Q    Q    H           H.           Q       Q    Q    H
--2----2-------------|---------------3----|--2----2-------------|
--3----3-------------|---------------0----|--3----3-------------|
--2----2-------------|---------------0----|--2----2-------------|
--0----0-------------|---------------0----|--0----0-------------|
---------------------|--------------------|---------------------|
---------------------|--------------------|---------------------|


  nunca  sortié                    las trampas  del amor.
                       D    D
  H.           Q       Q    Q    H           H.           Q
---------------3----|--2----2-------------|---------------3----|
---------------0----|--3----3-------------|---------------0----|
---------------0----|--2----2-------------|---------------0----|
---------------0----|--0----0-------------|---------------0----|
--------------------|---------------------|--------------------|
--------------------|---------------------|--------------------|


                          De   aquel  amoor
  D    D   D A  A  A  A     Bm   Bm
  Q    E.  S E  E  E  E     Q    E.  S E  E  Q
--2----2---2-0--0--0--0--|--2----2-----------3----|
--3----3---3-2--2--2--2--|--3----3-----------0----|
--2----2---2-2--2--2--2--|--4----4-----------0----|
--0----0---0-2--2--2--2--|--0----0-----------0----|
-------------0--0--0--0--|--2----2----------------|
-------------------------|-----------3-3--3-------|


       de    musica    ligera,
  D    D   D A  A  A  A     Bm   Bm
  Q    E.  S E  E  E  E     Q    E.  S E  E  Q
--2----2---2-0--0--0--0--|--2----2-----------3----|
--3----3---3-2--2--2--2--|--3----3-----------0----|
--2----2---2-2--2--2--2--|--4----4-----------0----|
--0----0---0-2--2--2--2--|--0----0-----------0----|
-------------0--0--0--0--|--2----2----------------|
-------------------------|-----------3-3--3-------|


                          nada nos  libra,
  D    D   D A  A  A  A     Bm   Bm
  Q    E.  S E  E  E  E     Q    E.  S E  E  Q
--2----2---2-0--0--0--0--|--2----2-----------3----|
--3----3---3-2--2--2--2--|--3----3-----------0----|
--2----2---2-2--2--2--2--|--4----4-----------0----|
--0----0---0-2--2--2--2--|--0----0-----------0----|
-------------0--0--0--0--|--2----2----------------|
-------------------------|-----------3-3--3-------|


             nada máas      quedaa”.
  D    D   D A  A  A  A     Bm   Bm
  Q    E.  S E  E  E  E     Q    E.  S E  E  Q
--2----2---2-0--0--0--0--|--2----2-----------3----|
--3----3---3-2--2--2--2--|--3----3-----------0----|
--2----2---2-2--2--2--2--|--4----4-----------0----|
--0----0---0-2--2--2--2--|--0----0-----------0----|
-------------0--0--0--0--|--2----2----------------|
-------------------------|-----------3-3--3-------|


                          Primer solo 1:09
  D    D   D A  A  A  A
  Q    E.  S E  E  E  E     E  E  E  H        E
--2----2---2-0--0--0--0--|-----------------------|
--3----3---3-2--2--2--2--|-----------------------|
--2----2---2-2--2--2--2--|-----------------------|
--0----0---0-2--2--2--2--|-----------------------|
-------------0--0--0--0--|--------4--5-----------|
-------------------------|--7--7-----------------|


  Q    E  E  E  E  E  E     Q.       E  Q.     E
-------------------------|------------------------|
-------------------------|------------------------|
-------------------------|------------------------|
-------------------------|------------------------|
-------4--5--4-----------|---------0g2--L------0--|
----------------7--5--2--|--L---------------------|


  Q    E  E  E  E  Q       E  E  E  H        E
------------------------|-----------------------|
------------------------|-----------------------|
------------------------|-----------------------|
------------------------|-----------------------|
--L---------------------|--2--2--4--5-----------|
-------2--0--2--0-------|-----------------------|


  Q    E  E  E  E  E  E     Q    H.              W
-------------------------|--------------------|-------------------|
-------------------------|--------------------|-------------------|
-------------------------|--------------------|-------------------|
-------2--4--2-----------|--------------------|-------------------|
----------------5--4--2--|--L-----------------|-------------------|
-------------------------|--------------------|-------------------|


 “No  le enviareé                 cenizas de...    rosas,
                       D    D
  H.           Q       Q    Q    H           H.           Q
---------------3----|--2----2-------------|---------------3----|
---------------0----|--3----3-------------|---------------0----|
---------------0----|--2----2-------------|---------------0----|
---------------0----|--0----0-------------|---------------0----|
--------------------|---------------------|--------------------|
--------------------|---------------------|--------------------|


                ni     pienso evitar                  un roce
  D    D                                     D    D
  Q    Q    H           H.           Q       Q    Q    H
--2----2-------------|---------------3----|--2----2-------------|
--3----3-------------|---------------0----|--3----3-------------|
--2----2-------------|---------------0----|--2----2-------------|
--0----0-------------|---------------0----|--0----0-------------|
---------------------|--------------------|---------------------|
---------------------|--------------------|---------------------|


 secree... to.
                       D    D   D A  A  A  A
  H.           Q       Q    E.  S E  E  E  E
---------------3----|--2----2---2-0--0--0--0--|
---------------0----|--3----3---3-2--2--2--2--|
---------------0----|--2----2---2-2--2--2--2--|
---------------0----|--0----0---0-2--2--2--2--|
--------------------|-------------0--0--0--0--|
--------------------|-------------------------|


  De   aquel   amoor            de  musica    li
  Bm   Bm                  D    D   D A  A  A  A
  Q    E.  S E  E  Q       Q    E.  S E  E  E  E
--2----2-----------3----|--2----2---2-0--0--0--0--|
--3----3-----------0----|--3----3---3-2--2--2--2--|
--4----4-----------0----|--2----2---2-2--2--2--2--|
--0----0-----------0----|--0----0---0-2--2--2--2--|
--2----2----------------|-------------0--0--0--0--|
-----------3-3--3-------|-------------------------|


  geraa,
  Bm   Bm                  D    D   D A  A  A  A
  Q    E.  S E  E  Q       Q    E.  S E  E  E  E
--2----2-----------3----|--2----2---2-0--0--0--0--|
--3----3-----------0----|--3----3---3-2--2--2--2--|
--4----4-----------0----|--2----2---2-2--2--2--2--|
--0----0-----------0----|--0----0---0-2--2--2--2--|
--2----2----------------|-------------0--0--0--0--|
-----------3-3--3-------|-------------------------|


  Nada  nos  libra,                      nada maás
  Bm   Bm                  D    D   D A  A  A  A
  Q    E.  S E  E  Q       Q    E.  S E  E  E  E
--2----2-----------3----|--2----2---2-0--0--0--0--|
--3----3-----------0----|--3----3---3-2--2--2--2--|
--4----4-----------0----|--2----2---2-2--2--2--2--|
--0----0-----------0----|--0----0---0-2--2--2--2--|
--2----2----------------|-------------0--0--0--0--|
-----------3-3--3-------|-------------------------|


  quedaa”.
  Bm   Bm                  D    D   D A  A  A  A
  Q    E.  S E  E  Q       Q    E.  S E  E  E  E
--2----2-----------3----|--2----2---2-0--0--0--0--|
--3----3-----------0----|--3----3---3-2--2--2--2--|
--4----4-----------0----|--2----2---2-2--2--2--2--|
--0----0-----------0----|--0----0---0-2--2--2--2--|
--2----2----------------|-------------0--0--0--0--|
-----------3-3--3-------|-------------------------|


Solo principal 1:56
   Q    E    E   E  E    Q       E    E   E  E    E  E    E   E
------------------------------|-----------------------------------|
--12----0h--10---L--0h--12----|--0h--10---L--0h--12--0h--10---LS--|
------------------------------|-----------------------------------|
------------------------------|-----------------------------------|
------------------------------|-----------------------------------|
------------------------------|-----------------------------------|


  Q    E  E  E  E  E  E      S  S   E  Q     E      E   E      E
-------------------------|----------------------------------------|
--7----L--5--L--7--L--7--|--10p-7-7g5--7----10--10g12--12--12g17--|
-------------------------|----------------------------------------|
-------------------------|----------------------------------------|
-------------------------|----------------------------------------|
-------------------------|----------------------------------------|


   Q     Q     Q     Q        E   E   E   E   E   E   E      E
--12----------------------|--12---------------------------------|
--------15----14----15----|------15--14--12---L--14--12--12g10--|
--------------------------|-------------------------------------|
--------------------------|-------------------------------------|
--------------------------|-------------------------------------|
--------------------------|-------------------------------------|


  S  S  S  S   E  S  S  S  S   E  S  S  S  S
--5h-7p-5---------5h-7p-5---------5h-7p-5------|
----------(5)h-5----------(5)h-5----------(5)h-|
-----------------------------------------------|
-----------------------------------------------|
-----------------------------------------------|
-----------------------------------------------|


  E  S  S  S  S   E  S  S  S  S   E   E      Q.      E   Q.      E
-----7h-9p-7---------5h-7p-5---------12--|--14------12--14------12--|
--5----------(7)h-7----------(5)h-5------|--------------------------|
-----------------------------------------|--------------------------|
-----------------------------------------|--------------------------|
-----------------------------------------|--------------------------|
-----------------------------------------|--------------------------|


   E   E   E   Q.      E   E      Q     Q     Q     Q
--14--15--14--12------12--14--|--15----14----12----10----|
------------------------------|--------------------------|
------------------------------|--------------------------|
------------------------------|--------------------------|
------------------------------|--------------------------|
------------------------------|--------------------------|


  E   E   E   E   E  E  E   E      E   E  E  E     S  S E  Q
--9--10--12--10---L--9--L------|--------------------------------|
---------------------------14--|---L\--7--L--7--7g10p-7----7----|
-------------------------------|------------------------9-------|
-------------------------------|--------------------------------|
-------------------------------|--------------------------------|
-------------------------------|--------------------------------|


  E   Q.      Q    Q       H           S  S E  Q
------------------------|---------------------------|
--L--12------10----7----|--7--------7g10p-7----7----|
------------------------|-------------------9-------|
------------------------|---------------------------|
------------------------|---------------------------|
------------------------|---------------------------|


      S   S  E      S   S  E      S   S  E      S   S  E
----------------------------------------------------------|
--10g12p-10-----12g14p-12-----14g15p-14-----15g17p-15-----|
------------11------------11------------14------------14--|
----------------------------------------------------------|
----------------------------------------------------------|
----------------------------------------------------------|


“De   aquel   amor                    de   música li
  Bm   Bm                  D    D   D A  A  A  A
  Q    E.  S E  E  Q       Q    E.  S E  E  E  E
--2----2-----------3----|--2----2---2-0--0--0--0--|
--3----3-----------0----|--3----3---3-2--2--2--2--|
--4----4-----------0----|--2----2---2-2--2--2--2--|
--0----0-----------0----|--0----0---0-2--2--2--2--|
--2----2----------------|-------------0--0--0--0--|
-----------3-3--3-------|-------------------------|


  gera,
  Bm   Bm                  D    D   D A  A  A  A
  Q    E.  S E  E  Q       Q    E.  S E  E  E  E
--2----2-----------3----|--2----2---2-0--0--0--0--|
--3----3-----------0----|--3----3---3-2--2--2--2--|
--4----4-----------0----|--2----2---2-2--2--2--2--|
--0----0-----------0----|--0----0---0-2--2--2--2--|
--2----2----------------|-------------0--0--0--0--|
-----------3-3--3-------|-------------------------|


  nada    nos  libra,                   nada más
  Bm   Bm                  D    D   D A  A  A  A
  Q    E.  S E  E  Q       Q    E.  S E  E  E  E
--2----2-----------3----|--2----2---2-0--0--0--0--|
--3----3-----------0----|--3----3---3-2--2--2--2--|
--4----4-----------0----|--2----2---2-2--2--2--2--|
--0----0-----------0----|--0----0---0-2--2--2--2--|
--2----2----------------|-------------0--0--0--0--|
-----------3-3--3-------|-------------------------|


  queda,                              nada más...
  Bm   Bm                  D    D   D A  A  A  A
  Q    E.  S E  E  Q       Q    E.  S E  E  E  E
--2----2-----------3----|--2----2---2-0--0--0--0--|
--3----3-----------0----|--3----3---3-2--2--2--2--|
--4----4-----------0----|--2----2---2-2--2--2--2--|
--0----0-----------0----|--0----0---0-2--2--2--2--|
--2----2----------------|-------------0--0--0--0--|
-----------3-3--3-------|-------------------------|


Charangueo 2:42
  E.  S S S S S S E  S S S S S
--7---7-7-7-7-7-x-7--7-7-7-7-7-|
--7---7-7-7-7-7-x-8--8-8-8-8-8-|
--7---7-7-7-7-7-x-7--7-7-7-7-7-|
--9---9-9-9-9-9-x-9--9-9-9-9-9-|
-------------------------------|
-------------------------------|


  E.  S S S S S  S  E   S  S  S  S  S
--5---5-5-5-5-5/-x--9---9--9--9--9--9-|
--7---7-7-7-7-7/-x-10--10-10-10-10-10-|
--7---7-7-7-7-7/-x--9---9--9--9--9--9-|
--7---7-7-7-7-7/-x-11--11-11-11-11-11-|
--------------------------------------|
--------------------------------------|


  E.  S S S S S S E  S S S S S
--7---7-7-7-7-7-x-7--7-7-7-7-7-|
--7---7-7-7-7-7-x-8--8-8-8-8-8-|
--7---7-7-7-7-7-x-7--7-7-7-7-7-|
--9---9-9-9-9-9-x-9--9-9-9-9-9-|
-------------------------------|
-------------------------------|


                                        Solo final 2:50
                           nada más      quedaa,
  E.  S S S S S  S  E   S  S  S  S  S     Q    E    E   E  E    Q
--5---5-5-5-5-5/-x--9---9--9--9--9--9-|------------------------------|
--7---7-7-7-7-7/-x-10--10-10-10-10-10-|--12----0h--10---L--0h--12----|
--7---7-7-7-7-7/-x--9---9--9--9--9--9-|------------------------------|
--7---7-7-7-7-7/-x-11--11-11-11-11-11-|------------------------------|
--------------------------------------|------------------------------|
--------------------------------------|------------------------------|


                  nada   máas        queda,
  E    E   E  E    E  E    E   E      Q    E  E  E  E  E  E
-----------------------------------|-------------------------|
--0h--10---L--0h--12--0h--10---LS--|--7----L--5--L--7--L--7--|
-----------------------------------|-------------------------|
-----------------------------------|-------------------------|
-----------------------------------|-------------------------|
-----------------------------------|-------------------------|


                      nada    más         que  daaa
   S  S   E  Q     E      E   E      E      Q     Q     Q     Q
----------------------------------------|--12----------------------|
--10p-7-7g5--7----10--10g12--12--12g17--|--------15----14----15----|
----------------------------------------|--------------------------|
----------------------------------------|--------------------------|
----------------------------------------|--------------------------|
----------------------------------------|--------------------------|


                      nada     más      quee daa”.
   E   E   E   E   E   E   E      E      Q     Q     Q     Q
--12---------------------------------|--------------------------|
------15--14--12---L--14--12--12g10--|--------14----15----17----|
-------------------------------------|--16----------------------|
-------------------------------------|--------------------------|
-------------------------------------|--------------------------|
-------------------------------------|--------------------------|


   Q     Q     Q     Q        H         H           W
--------------14----17----|--19\-----------------|-------------------|
--15----17----------------|----------------------|-------------------|
--------------------------|----------------------|-------------------|
--------------------------|----------------------|-------------------|
--------------------------|----------------------|-------------------|
--------------------------|----------------------|-------------------|


    H          H           W                   Q    H        Q
--(19)\-----------------|-------------------|--3----2-------------||
------------------------|-------------------|--3----3-------------||
------------------------|-------------------|--0----2-------------||
------------------------|-------------------|---------------------||
------------------------|-------------------|---------------------||
------------------------|-------------------|---------------------||


NOTA.
------
1.-Durante el primer solo (1:09) hay otra guitarra q sigue haciendo lo
mismo que se hace en toda la canción.


ESPECIFICACIONES DE TIEMPO (RITMO).
-----------------------------------
W-Redonda
H-Blanca
Q-Negra
E-Corchea
S-Semicorchea
T-Fusa
X-Semifusa

a - acciaccatura
+ - note tied to previous; . - note dotted; .. - note double dotted
Uncapitalized letters represent notes that are staccato (1/2 duration)
Irregular groupings are notated above the duration line
Duration letters will always appear directly above the note/fret number
it represents the duration for.  Duration letters with no fret number
below them represent rests.  Multi-bar rests are notated in the form Wxn,
where n is the number of bars to rest for.  Low melody durations appear
below the staff


ESPECIFICACIONES DE EFECTOS.
----------------------------

L - tied note
x - dead note
g - grace note
(n) - ghost note
> - accentuded note
NH - natural harmonic
AH - artificial harmonic
TH - tapped harmonic
SH - semi harmonic
PH - pitch harmonic
h - hammer on
p - pull off
b - bend
br - bendRelease
pb - preBend
pbr - preBendRelease
brb - bendReleaseBend
\n/ - tremolo bar dip
\n - tremolo bar dive
-/n - tremolo bar Release up
/n\ - tremolo bar inverted dip
/n - tremolo bar return
-\n - tremolo bar Release down
S - shift slide
s - legato slide
/ -  slide into from below or out of upwards
\ -  slide into from above or out of downwards
~ - vibrato
W - wide vibrato
tr - trill
TP - tremolo picking
T - tapping
S - slap
P - pop
< - fade in
^ - brush up
v - brush down


ESPECIFICACIONES TABLATURA.
---------------------------
 |  - bar
||  - double bar
||o - repeat start
o|| - repeat end
*|  - double bar (ending)
 :  - bar (freetime)
 $  - Segno
 &  - Coda

Tempo markers -  = BPM(8/16=s8/s16),
where s8 = swing 8ths, s16 = swing 16ths

            
            
Suggest correction
Creating personal tab
Creating personal tab
You can edit any tab online and save it as your Personal.

You can edit, replace or remove any tab part or add personal notes – all changes will be seen only by you.

Personal tabs can be accessed anytime from any device, even offline.
Learn more »
comments
print report bad tab
2 comments total.
0 reply
daniloh91 40 Sep 25, 2007 02:32 PM

da gusto que alguien se tome la molestia de hacer una tab como esta en lugar de medio-oir la pieza y escribir una porqueria. si pudiera pondria 50 estrellas

0 reply
Ggirl 133 Dec 21, 2007 08:17 AM

Buen esfuerzo pero I dont understand anything..sorry 1 star

guest
You may want to rate the tab now too:
select rating
Wanna post a correction for this tab? Suggest correction