Oops, an error
Loading. Please wait.

Geschwisterliebe bass

version 1
version 1

Whole song

Interactive

2,797 views 1 this week
no commentswrite comment
1 2 3 4 5
3 more votes to show rating
add to favorites
×
Save as Personal and add changes to this tab that will be seen only by you. Learn more ›
×
You can save this tab as Personal to edit and correct it or add notes. All changes will be seen only by you. Learn more »
launch autoscroll
font size
0
reset
guitar tuner
edit
Autoscroll
slow
fast
+/-
esc
set tempo
stop
Author
-------------------------------------------------------------------------------
			     Geschwisterliebe – Die Aerzte
-------------------------------------------------------------------------------
Plz kontakt me for mistakes!
Tabbed By : assmax9392
e-mail: MaxLob@t-online.de

Tuning: normal 
Intro: Intro figure without bass 2 times than base then

G|--------------------------------l-------------------|
D|--------------------------------l-------------------|
A|-0-------0----------------------l-------------------|
E|----------3------------3-1------l-1-1------3-----0--|

G|--------------------------------l---------------|
D|--------------------------------l---------------|
A|-0-------0----------------------l---------------|
E|-----------3-----------3-1------l-1-1---1-1---3-|
1.	Verse:

Wir haben zusammen im Sandkasten gesessen.
G|--------------------------------l------------|
D|--------------------------------l------------|
A|-0-------0----------------------l------------|
E|-----------3-----------3-1------l-1--------3-|

   Beim Doktorspielen wollt’ ich nur dein Fieber messen. 
G|--------------------------------l-------------|
D|--------------------------------l-------------|
A|-0-------0----------------------l-------------|
E|----------3------------3-1------l-1-1-------3-|

  Jetzt bist du 14 und du bist soweit.
G|--------------------------------l-------------|
D|--------------------------------l-------------|
A|-0-------0----------------------l-------------|
E|----------3------------3-1------l-1-1-------3-|


  Wir warten keine Ewigkeit.
G|------------------------------------------|
D|------------------------------------------|
A|-0-------0--------------------------------l
E|----------3------------3-1-1-3-1-1--1-3-0-|

  Chorus:
  Sind unsere Eltern auch dagegen. 
G|-------------------------------------------|
D|-------------------------------------------|
A|-0-------0---------------------------------|
E|----------3------------3-1-1-3-1-1-1-3-1-1-|

   Ich würd’ dich gerne mal flachlegen!  
G|-------------------------------------------|
D|-------------------------------------------|
A|-0-------0-----------3---------------------|
E|----------3--------3-----------------------|

   Interlude:
G|--------------------------------l-------------------|
D|--------------------------------l-------------------|
A|-0-------0----------------------l-------------------|
E|----------3------------3-1------l-1-1------3-----0--|

G|------------------------------------------|
D|------------------------------------------|
A|-0-------0--------------------------------l
E|----------3------------3-1-1-3-1-1--1-3-0-|

Verse2:
  Ich hoffe, dass du keine Kinder kriegst.
G|--------------------------------l------------|
D|--------------------------------l------------|
A|-0-------0----------------------l------------|
E|-----------3-----------3-1------l-1--------3-|

Weil du doch schliesslich meine Schwester bist.
G|--------------------------------l-------------|
D|--------------------------------l-------------|
A|-0-------0----------------------l-------------|
E|----------3------------3-1------l-1-1-------3-|

Die Eltern die sind weggefahren.
G|--------------------------------l-------------|
D|--------------------------------l-------------|
A|-0-------0----------------------l-------------|
E|----------3------------3-1------l-1-1-------3-|

Auf die Gelegenheit wart ich schon seit 14 Jahren
G|------------------------------------------|
D|------------------------------------------|
A|-0-------0--------------------------------l
E|----------3------------3-1-1-3-1-1--1-3-0-|

Chorus:
Noch sitzen wir hier und spielen Schach
G|-------------------------------------------|
D|-------------------------------------------|
A|-0-------0---------------------------------|
E|----------3------------3-1-1-3-1-1-1-3-1-1-|
 
Aber gleich leg ich dich Flach!
G|-------------------------------------------|
D|-------------------------------------------|
A|-0-------0-----------3---------------------|
E|----------3--------3-----------------------|

Guitare Solo:
G|--------------------------------l-------------|
D|--------------------------------l-------------|
A|-0-------0----------------------l-------------|
E|----------3------------3-1------l-1-1-------3-|

G|--------------------------------l-------------|
D|--------------------------------l-------------|
A|-0-------0----------------------l-------------|
E|----------3------------3-1------l-1-1-------3-|

3.Verse 
Der grosse Augenblick ist da...
G|--------------------------------l------------|
D|--------------------------------l------------|
A|-0-------0----------------------l------------|
E|-----------3-----------3-1------l-1--------3-|

Ich liege auf die du schreist JAAAA!
G|--------------------------------l-------------|
D|--------------------------------l-------------|
A|-0-------0----------------------l-------------|
E|----------3------------3-1------l-1-1-------3-|

Du bist so eng – das macht mich geil.
G|--------------------------------l-------------|
D|--------------------------------l-------------|
A|-0-------0----------------------l-------------|
E|----------3------------3-1------l-1-1-------3-|

Und morgen nehme ich dein Hinterteil
G|------------------------------------------|
D|------------------------------------------|
A|-0-------0--------------------------------l
E|----------3------------3-1-1-3-1-1--1-3-0-|

Chorus:
Noch Stunden später bist du sehr erregt.
G|-------------------------------------------|
D|-------------------------------------------|
A|-0-------0---------------------------------|
E|----------3------------3-1-1-3-1-1-1-3-1-1-|

Ich hab dich schließlich grade flachgelegt.
G|-------------------------------------------|
D|-------------------------------------------|
A|-0-------0-----------3---------------------|
E|----------3--------3-----------------------|

Outro:
Das befriedigt meine Triebe Geschwisterliebe, Geschwisterliebe
G|-------------------------------------------|
D|-------------------------------------------|
A|-0-------0---------------------------------|
E|----------3------------3-1-1-3-1-1-1-3-1-1-|

Das befriedigt meine Triebe Geschwisterliebe, Geschwisterliebe
G|-------------------------------------------|
D|-------------------------------------------|
A|-0-------0---------------------------------|
E|----------3------------3-1-1-3-1-1-1-3-1-1-|

Das befriedigt meine Triebe Geschwisterliebe, Geschwisterliebe
G|-------------------------------------------|
D|-------------------------------------------|
A|-0-------0-----------3---------------------|
E|----------3--------3-----------------------|





| /  slide up
| \  slide down
| h  hammer-on
| p  pull-off
| ~  vibrato
| +  harmonic
| x  Mute note
===============================================================================


            
            
Suggest correction
Creating personal tab
Creating personal tab
You can edit any tab online and save it as your Personal.

You can edit, replace or remove any tab part or add personal notes – all changes will be seen only by you.

Personal tabs can be accessed anytime from any device, even offline.
Learn more »
Give kudos to tab author, rate the tab!
1 2 3 4 5
comments
print report bad tab
guest
You may want to rate the tab now too:
select rating
Wanna post a correction for this tab? Suggest correction