Oops, an error
Loading. Please wait.

Find Myself bass

841 views 3 this week
no commentswrite comment
1 2 3 4 5
2 more votes to show rating
add to favorites
×
Save as Personal and add changes to this tab that will be seen only by you. Learn more ›
×
You can save this tab as Personal to edit and correct it or add notes. All changes will be seen only by you. Learn more »
launch autoscroll
font size
0
reset
guitar tuner
edit
Autoscroll
slow
fast
+/-
esc
set tempo
stop
Author
Difficulty
Artist:Motley Crue
Song:Find Myself
Album:Generation Swine
Bassist:Nikki Sixx
Tabber:Dev Fuld

Not one of the better albums, but still a hell of a good album and a heavy way to start off 
the album.

Key:
x = times a number
b = bend
* = let it ring

Intro
G:-----------------------------|
D:-----------------------------|
A:----------------------2-2-1-0|
E:3b-3b-3b-3b-3b-3b-0-0--------|

Verse
G:-----------------------------|
D:-----------------------------|
A:----------------------2-2-1-0|
E:3b-3b-3b-3b-3b-3b-0-0--------|

End of verse
G:-----------------|-----------------|
D:-----------------|-----------------|
A:-----------------|-----------------|
E:3b-3b-3b-3b-3b-3b|3b-3b-3b-3b-3b-3b|

Chorus (I'm a sick...)
G:-------------------|-----------|----------|
D:-------------------|-----------|----------|
A:5x16------5x16-----|5x8-3x8----|5x8-3x8---|
E:-----3x16------3x16|--------3x8|--------3*|

That's it. This is a fun tune to play, but you gotta watch your bends, you'll hear what 
I mean. You can figure out the order yourself, it's easy enough. Any questions or comments, 
e-mail me at rocklvson@yahoo.com


            
            
Suggest correction
Creating personal tab
Creating personal tab
You can edit any tab online and save it as your Personal.

You can edit, replace or remove any tab part or add personal notes – all changes will be seen only by you.

Personal tabs can be accessed anytime from any device, even offline.
Learn more »
Give kudos to tab author, rate the tab!
1 2 3 4 5
comments
print report bad tab
guest
You may want to rate the tab now too:
select rating
Wanna post a correction for this tab? Suggest correction