Oops, an error
Loading. Please wait.

Five Years Dead bass

version 1
version 1

Whole song

Interactive

1,225 views 1 this week
1 commentread comment
1 2 3 4 5
3 more votes to show rating
add to favorites
×
Save as Personal and add changes to this tab that will be seen only by you. Learn more ›
×
You can save this tab as Personal to edit and correct it or add notes. All changes will be seen only by you. Learn more »
launch autoscroll
font size
0
reset
guitar tuner
edit
Autoscroll
slow
fast
+/-
esc
set tempo
stop
Author
Difficulty
Artist:Motley Crue
Song:Five Years Dead
Album:Girls, Girls, Girls
Bassist:Nikki Sixx
Tabber:Dev Fuld

Well, I love this song, one of the Crue's best, then again everything they 
do is kickass.

Key:
x = times a number

Intro
F:----------------------------------------------------|
C:----------------------------------------------------|
G:----------------------------------------------------|
D:0---2-3-3-2-0-0---2-3-3-2-0-0---2-3-3-2-0-0---2--3-4|

F:-------------------------------------|
C:-------------------------------------|
G:--4-5-4--------------4-5-4-----------|
D:0--------2-3-3-2-0-0--------2-3-3-2-0|

Verse
F:-------------------------------------------------------|
C:-------------------------------------------------------|
G:-------------------------------------------------------|
D:5x9-0-2-2-3-3-4-4-5x9-0-2-2-3-3-4-4-5x9-0-2-2-3-3-4-4-5|

Pre-Chorus
F:---------|
C:---------|
G:---------|
D:---2--3-4|

Chorus 1
F:-------------------------------------|
C:-------------------------------------|
G:--4-5-4--------------4-5-4-----------|
D:0--------2-3-3-2-0-0--------2-3-3-2-0|

Verse

Pre-Chorus

Chorus 2
F:---------------------------------------|---------------------------------|
C:---------------------------------------|---------------------------------|
G:--4-5-4--------------4-5-4-------------|4-5-4--------------4-5-4---------|
D:0--------2-3-3-2-0-0--------2-3-3-2-0-0|-------2-3-3-2-0-0---------2--3-4|

F:-----------------------------------|
C:--4-5-4--------------4-5-4---------|
G:0--------2-3-3-2-0-0---------2--3-4|
D:-----------------------------------|

F:-------------------------------------|
C:-------------------------------------|
G:--4-5-4--------------4-5-4-----------|
D:0--------2-3-3-2-0-0--------2-3-3-2-0|

Bridge
F:----------------------------------------|-----------------------------|
C:----------------------------------------|-----------------------------|
G:-----2x14-0-2-3x6-2-3-5x8---------------|-----2x14-0-2-3x6-2-3-5x8----|
D:5x16----------------------5555-3-2-3-5x8|5x16----------------------5x9|

After Bridge
F:------------------------|-------------------------------------|
C:------------------------|-------------------------------------|
G:------------------------|--4-5-4--------------4-5-4-----------|
D:0---2-3-3-2-0-0---2--3-4|0--------2-3-3-2-0-0--------2-3-3-2-0|

Verse

Pre-Chorus

Chorus 1

Next part (solo) x9
F:--------------------------|
C:--------------------------|
G:---4-5-4------------------|
D:00--0-0-00-2-0-3-0-3-2-0-0|

F:------|
C:------|
G:------|
D:2--3-4|

Verse

Pre-Chorus

Chorus 2

End (Five years dead...)
F:----|
C:----|
G:----|
D:5---|

That's it. Really rockin tune, and you have to play is with attitude. I already 
put it in order, so plug and play. Any comments or questions, e-mail me at 
rocklvson@yahoo.com


            
            
Suggest correction
Creating personal tab
Creating personal tab
You can edit any tab online and save it as your Personal.

You can edit, replace or remove any tab part or add personal notes – all changes will be seen only by you.

Personal tabs can be accessed anytime from any device, even offline.
Learn more »
Give kudos to tab author, rate the tab!
1 2 3 4 5
comments
print report bad tab
1 comment total.
0 reply
i95117074 10 Sep 19, 2013 08:41 PM

Perfect!! Thank you very much!

guest
You may want to rate the tab now too:
select rating
Wanna post a correction for this tab? Suggest correction