Oops, an error
Loading. Please wait.

Helter Skelter bass

version 1
version 1

Whole song

Interactive

8,000 views 12 this week
no commentswrite comment
1 2 3 4 5
2 more votes to show rating
add to favorites
×
Save as Personal and add changes to this tab that will be seen only by you. Learn more ›
×
You can save this tab as Personal to edit and correct it or add notes. All changes will be seen only by you. Learn more »
launch autoscroll
font size
0
reset
guitar tuner
backing track
0:00
0:00
edit
Autoscroll
slow
fast
+/-
esc
set tempo
stop
Author
Difficulty
Artist:Motley Crue
Song:Helter Skelter (Cover of Beatles tune)(Version 2)
Album:Shout At The Devil
Bassist:Nikki Sixx
Tabber:Dev Fuld

Ok, here is the second version, or second way to play, Motley Crue's version 
of Helter Skelter. I just realized that on the first version I put the solo 
as, 5-555-555-555-9...it should be 5-555-555-555-8, just letting you know. 

Key:
* = let it ring

Intro
G:---------------------------------------|-------------------------------|
D:---------------------------------------|-------------------------------|
A:---------------------------------------|-------------------------------|
D:2-2-2-2-2-2-2-2-2-2-2-2-2-2-2-2-2-2-2-2|5-5-5-5-5-5-5-5-2-2-2-2-2-2-2-2|

Verse
G:---------------|---------------|---------------|---------------|
D:---------------|---------------|---------------|---------------|
A:---------------|---------------|---------------|---------------|
D:0-222-222-222-5|0-222-222-222-5|0-222-222-222-5|0-222-222-222-5|

Pre-Chorus
G:---------------------------------|R|---------------|
D:---------------------------------|E|---------------|
A:---------------------------------|S|---------------|
D:5-5-5-5-5-5-5-5-5-5-5-5-5-5-5-5-7|T|2-2-2-2-2-2-2-2|

Chorus
G:---------------------|---------------------|------------------------|
D:--------5-4----------|---------------------|--------5-4-------------|
A:------------7-5-4-2--|--------5-4----------|------------7-5-4-2-----|
D:7-7-7-7-------------7|2-2-2-2-----9-7-6-4-2|7-7-7-7-------------7--2|

Verse

Pre-Chorus

Chorus

Pre-Solo
G:--------|
D:--------|
A:--------|
D:2*--2-2*|

Solo
G:----------------|---------------|----------------|---------------|----------------|
D:----------------|---------------|----------------|---------------|----------------|
A:----------------|---------------|----------------|---------------|----------------|
D:7-777-777-777-10|7-777-777-777-2|7-777-777-777-10|7-777-777-777-2|7-777-777-777-10|

Intro

Verse

Pre-Chorus

Chorus

Chorus

Chorus

End
G:--|
D:--|
A:--|
D:2*|

That's it. This version is just as good as the first with a couple differences. 
I already put it in order, so enjoy. Any questions or comments, e-mail me 
at rocklvson@yahoo.com

            
            
Suggest correction
Creating personal tab
Creating personal tab
You can edit any tab online and save it as your Personal.

You can edit, replace or remove any tab part or add personal notes – all changes will be seen only by you.

Personal tabs can be accessed anytime from any device, even offline.
Learn more »
Give kudos to tab author, rate the tab!
1 2 3 4 5
comments
print report bad tab
guest
You may want to rate the tab now too:
select rating
Wanna post a correction for this tab? Suggest correction